Song name
# A B C D E F G H I J K L M N O P Q R S T U V W X Y Z

Bahamas - Overjoyed tab

Tuning:standard    If you need a feel of the playing patterns, here is a video of 
me playing it  http://www.youtube.com/watch?v=Ja-3Wmpj6KE

INTRO (GUITAR)

                  G  G           G             Em Em
e|----------------3--3-----------3-------------0--0------------------------| R |
B|---3/5~---3p0---0--0----12h13--0----0-----0--0--0------------------------| E |
G|----------------0--0----12-----0---0-2-0h2---0--0------------------------| P |
D|----------------0--0-----------0-------------2--2--0h2-------------------| E |
A|----------------2--2-----------2-------------2--2-----0h2----------------| A |
E|----------------3--3-----------3-------------0--0--------0~--------------| T |

          Am  Am                Em               Am        C            Em
e|--------0---0-0-0-------------0--0--0 -0-------0---0--0--0------------0--------------|
B|--0-----1---1-1-1------0------0--0--0--0--0----1---1--1--1------------0--------------|
G|-0-2-0--0h2-2-2-0h2--2---2-0--0--0--0--0----2--0h2-2--2--0------0--0--0--------------|
D|--------2---2-2-2-------------2--2--2--2-------2---2--2--2--0h2---0---2--------------|
A|--------0---0-0-0-------------2--2--2--2-------0---0--0--3------------2--------------|
E|--------0---0-0-0-------------0--2--0--0-------0---0--0--3------------0--------------|


VERSE 1

        Overjoyed,                   if laughter's all we had 
        Overjoyed,                   there's joy in feeling sad, 
e|----------------3--3-----------3-------------0--0------------------------| R |
B|---3/5~---3p0---0--0----12h13--0----0-----0--0--0------------------------| E |
G|----------------0--0----12-----0---0-2-0h2---0--0------------------------| P |
D|----------------0--0-----------0-------------2--2--0h2-------------------| E |
A|----------------2--2-----------2-------------2--2-----0h2----------------| A |
E|----------------3--3-----------3-------------0--0--------0~--------------| T |

    Now I  know,                now I know,      now I know
e|--------0---0-0-0-------------0--0--0 -0-------0---0--0--0------------0--------------|
B|--0-----1---1-1-1------0------0--0--0--0--0----1---1--1--1------------0--------------|
G|---2----0h2-2-2-0h2------2----0--0--0--0----2--0h2-2--2--0------0--0--0--------------|
D|--------2---2-2-2-------------2--2--2--2-------2---2--2--2--0h2---0---2--------------|
A|--------0---0-0-0-------------2--2--2--2-------0---0--0--3------------2--------------|
E|--------0---0-0-0-------------0--2--0--0-------0---0--0--3------------0--------------|

VERSE 2
 
      Lost the nerve                             to fight ya over this 
e|----------------3--3--15-12--------------3-------------0--0----------------|
B|---3/5~---3p0---0--0-------15-12---------0----0-----0--0--0----------------|
G|----------------0--0-------------14-12---0---0-2-0h2---0--0----------------|
D|----------------0--0---------------------0-------------2--2--0h2-----------|
A|----------------2--2---------------------2-------------2--2-----0h2--------|
E|----------------3--3---------------------3-------------0--0---------0~-----|

      And all I want                is to taste my lover's kiss 
e|-----------------3--3---------3---------------0-------0------------------------|
B|---3/5~-3h5p3p0--0--0--0h1----0----0------0---0--3br0-0------------------------|
G|-----------------0--0--0------0-----2-0h2-----0-------0------------------------|
D|-----------------0--0---------0---0-----------2-------2--0h2-------------------|
A|-----------------2--2---------2---------------2-------2-----0h2----------------|
E|-----------------3--3---------3---------------0-------0--------0~--------------|
 
      Now I know,             now I know,       now I know          
e|--------0---0-0-0-------------0--0--0 -0-------0---0--0--0-s--0----------------|
B|--0-----1---1-1-1------0------0--0--0--0--0----1---1--1--1-s--3----------------|
G|---2----0h2-2-2-0h2------2----0--0--0--0----2--0h2-2--2--0-s--0----------------|
D|--------2---2-2-2-------------2--2--2--2-------2---2--2--2-s--4----------------|
A|--------0---0-0-0-------------2--2--2--2-------0---0--0--3-s--5----------------|
E|--------0---0-0-0-------------0--2--0--0-------0---0--0--0-s--0----------------|

CHORUS                                            
      G                                      release me, you release me, you release me   
e|----3--------------------------------------0-----------0---------------3------------0----------|
B|----0---All the times to you I lied--------0-----------0---------------0------------3----------|
G|----0---of all the hurt I hold inside------0-----------0---------------0------------0----------|
D|----0--------------------------------------2-----------1---------------0------------4----------|
A|----2--------------------------------------2-----------3---------------2------------5----------|
E|----3--------------------------------------0-----------3---------------3------------0----------|

    G                                        release me, you release me, you release me, whoa oh  
e|--3----------------------------------------0-----------0---------------3-----------------0-----|
B|--0--You help me get it off my chest-------0-----------0---------------0-----------------0-----|
G|--0--You hold the pain and leave the rest--0-----------0---------------0-----------------0-----|
D|--0----------------------------------------2-----------1---------------0-----------------2-----|
A|--2----------------------------------------2-----------3---------------2-----------------2-----|
E|--3----------------------------------------0-----------3---------------3-----------------0-----|

    Darlin' you release me
e|--0-------0-----------3-------------|
B|--1-------3-----------0-------------|
G|--0-------0-----------0-------------|
D|--2-------4-----------0-------------|
A|--3-------5-----------2-------------|
E|--0-------0-----------3-------------|



Lyrics
Overjoyed
If laughter's all we had
Overjoyed
There's joy in feeling sad
Now I know
Now I know
Now I know

Lost the nerve
To fight ya over this
And all I want
Is to taste my lover's kiss
Now I know
Now I know
Now I know

All the times to you I lied
Of all the hurt I hold inside
Release me, you release me, you release me

You help me get it off my chest
You hold the pain and leave the rest
Release me, you release me, you release me
Ohhh, darlin' you release me
Tap to rate this tab
# A B C D E F G H I J K L M N O P Q R S T U V W X Y Z