Song name
# A B C D E F G H I J K L M N O P Q R S T U V W X Y Z

Bahamas - Caught Me Thinking tab

Tuning:Standard   If you need a feel of the strumming patterns, here is a video of 
me playing it http://www.youtube.com/watch?v=L1WhVC4Pwvg

INTRO

e|--9-9-9-8-7---14\2--0~--------------7-7-7-5-----9-9-9-7----5-5-5-7---7~-------12h14------|
B|--9-9-9-8-7---14\2--2~--------------7-7-7-5-----9-9-9-7----5-5-5-7---7~--12/14-----12-10-|
G|--9-9-9-8-7---14\2--2~--------------7-7-7-6-----9-9-9-8----6-6-6-7---7~--12/14-----------|
D|--9-9-9-8-7---14\2--2~-------------------------------------------------------------------|
A|--------------------0~--------5h7-5-----------7----------0-------------------------------|
E|--------------------0~----5h7------------------------------------------------------------|

e|-------7-7-7-5-----9-9-9-7----5-5-5-7---7~------------|
B|-------7-7-7-5-----9-9-9-7----5-5-5-7---7~------------|
G|-------7-7-7-6-----9-9-9-8----6-6-6-7---7~------------|
D|------------------------------------------------------|
A|----5----------7-----------0--------------------------|
E|------------------------------------------------------|

VERSE 1

   Back when we started Before we parted I would wonder what could make her stay
e|----------------------------------------------------------------------------------|
B|----------------------------------------------------------------------------------|
G|------------------------------------------------------------------------------7---|
D|------------------------------------------------------------------------------7---|
A|-----5--------5-------5-7--------7-------------------------------------4--5-5-4---|
E|-----------------------------------------------5------------7---------------------|

    What was I thinking As if my drinking was the only thing that drove her away
e|------------------------------------------------------------------------------------|
B|------------------------------------------------------------------------------------|
G|------------------------------------------------------------------------------------|
D|------------------------------------------------------------------------------------|
A|-----5--------5---------7--------7-------------------------------------4--5---------|
E|-----------------------------------------------5------------7-----------------------|

       Was it ambition or a war of attrition? Honey, you could always take it out
e|---5/7--7---7--7--------7--7--7---------------5---------------------------5~---------------|
B|---5/7--7---7--7--------9--9--9---------------5---------------------------7~---------------|
G|---6/7--7---7--7--------9--9--9---------------6-------------7-------------7~---------------|
D|---7/7--7h9-9--9--------9--9--9---------------7-------------7-------------7~---------------|
A|---7/9--9---9--9--------7--7--7---------------7-------------7------4------5~---------------|
E|---5/7--7---7--7--------7--7--7---------------5-------------7------------------------------|

       Now I know beyond the shadow of a doubt, it's my fault.
e|---5/7--7---7--7-----------7--7--7--7--7---------------0-----------------------------------|
B|---5/7--7---7--7-----------9--9--9--9--9---------------2-----------------------------------|
G|---6/7--7---7--7-----------9--9--9--9--9---------------2-----------------------------------|
D|---7/7--7h9-9--9-----------9--9--9--9--9---------------2-----------------------------------|
A|---7/9--9---9--9-----------7--7--7--7--7---------------0------0---------4p0-----0----------|
E|---5/7--7---7--7-----------7--7--7--7--7-----------------0-2-0--0-2-0-------2p0--4-3-2-0---|

CHORUS
   Caught me thinking, what it might be like to be alone for a while, Or alone for just one ---
e|-0-------------------2------------------2------------0-----------------2----------0----------|
B|-0-------------------2------------------3------------0-----------------2----------2----------|
G|-1-------------------2------------------2------------1-----------------2----------2----------|
D|-2-------------------4------------------0------------2-----------------4----------2----------|
A|-2-------------------4------------------0------------2-----------------4----------0----------|
E|-0-------------------2------------------0------------0-----------------2----------0----------|

INTRO 2
  -------night
e|------------7-7-7-5-----9-9-9-7----5-5-5-7---7~--------5h7-5-5h7-5-----------------------|
B|------------7-7-7-5-----9-9-9-7----5-5-5-7---7~-------------------7-5--------------------|
G|------------7-7-7-6-----9-9-9-8----6-6-6-7---7~------------------------------------------|
D|-----------------------------------------------------------------------------------------|
A|----------5----------7-----------0-------------------------------------------------------|
E|-----------------------------------------------------------------------------------------|

e|------------7-7-7-5-----9-9-9-7----5-5-5-7---7~------------------------------------------|
B|------------7-7-7-5-----9-9-9-7----5-5-5-7---7~------------------------------------------|
G|------------7-7-7-6-----9-9-9-8----6-6-6-7---7~------------------------------------------|
D|-----------------------------------------------------------------------------------------|
A|----------5----------7-----------0-------------------------------------------------------|
E|-----------------------------------------------------------------------------------------|

VERSE 2
       I share my feelings You'd hit the ceiling I couldn't shake it if I tried
e|------------------------------------------------------------------------------------|
B|------------------------------------------------------------------------------------|
G|------------------------------------------------------------------------------7-----|
D|------------------------------------------------------------------------------7-----|
A|-----5--------5-------5-7--------7-----------------------------------4--5-5---4-----|
E|-----------------------------------------------5------------7-----------------------|

       You were my lover Only to discover, something inside of me had died
e|------------------------------------------------------------------------------------|
B|------------------------------------------------------------------------------------|
G|------------------------------------------------------------------------------------|
D|------------------------------------------------------------------------------------|
A|-----5--------5---------7--------7----------------------------------4--5------------|
E|-----------------------------------------------5------------7-----------------------|

     Was it ambition or a war of attrition? Honey, you could always take it out
e|---5/7--7---7--7--------7--7--7---------------5---------------------------5~---------------|
B|---5/7--7---7--7--------9--9--9---------------5---------------------------7~---------------|
G|---6/7--7---7--7--------9--9--9---------------6-------------7-------------7~---------------|
D|---7/7--7h9-9--9--------9--9--9---------------7-------------7-------------7~---------------|
A|---7/9--9---9--9--------7--7--7---------------7-------------7------4------5~---------------|
E|---5/7--7---7--7--------7--7--7---------------5-------------7------------------------------|

     Now I know beyond the shadow of a doubt, it's my fault
e|---5/7--7---7--7-----------7--7--7--7--7---------------0-----------------------------------|
B|---5/7--7---7--7-----------9--9--9--9--9---------------2-----------------------------------|
G|---6/7--7---7--7-----------9--9--9--9--9---------------2-----------------------------------|
D|---7/7--7h9-9--9-----------9--9--9--9--9---------------2-----------------------------------|
A|---7/9--9---9--9-----------7--7--7--7--7---------------0------0---------4p0-----0----------|
E|---5/7--7---7--7-----------7--7--7--7--7-----------------0-2-0--0-2-0-------2p0--4-3-2-0---|

CHROUS

   Caught me thinking, what it might be like to be alone for a while, Or alone for just one night~
e|-0-------------------2------------------2------------0-----------------2----------0--------2--|
B|-0-------------------2------------------3------------0-----------------2----------2--------3--|
G|-1-------------------2------------------2------------1-----------------2----------2--------2--|
D|-2-------------------4------------------0------------2-----------------4----------2--------0--|
A|-2-------------------4------------------0------------2-----------------4----------0--------0--|
E|-0-------------------2------------------0------------0-----------------2----------0--------0--|

OUTRO 
         Repeat 3 times with choice of fills         |Fill 1 |Fill 2     |Fill 3
e|------------7-7-7-5-----9-9-9-7----5-5-5-7---7~----|-------|-5h7-5-----|--------------------|
B|------------7-7-7-5-----9-9-9-7----5-5-5-7---7~----|-------|------7-5-7|--------------------|
G|------------7-7-7-6-----9-9-9-8----6-6-6-7---7~----|-------|-----------|--------------------|
D|---------------------------------------------------|-------|-----------|---0-0-0-0-0--------|
A|----------5----------7-----------0-----------------|-5-5-5-|-----------|-4/5-5-5-5-5--------|
E|---------------------------------------------------|-------|-----------|--------------------|

4th repeat

e|------------7-7-7-5-----9-9-9-8-7---14/2----0~--------------------------------------|
B|------------7-7-7-5-----9-9-9-8-7---14/2----2~--------------------------------------|
G|------------7-7-7-6-----9-9-9-8-7---14/2----2~--------------------------------------|
D|--------------------------------------------2~--------------------------------------|
A|----------5---------------------------------0~--------------------------------------|
E|--------------------------------------------0~--------------------------------------|
Tap to rate this tab
# A B C D E F G H I J K L M N O P Q R S T U V W X Y Z