Song name
# A B C D E F G H I J K L M N O P Q R S T U V W X Y Z

Bajm - Myli I Sowa tab

Help us improve GuitareTab! Take a short survey!
     "Myli i sowa" - Bajm
    Transkrypted by: Ziutas   



Chords:

D2  x00230
E   022100
f   244222
A   002220
H   224442


     
            f           H                  D2        A     E
    Kocham Ci, uciekaj myli ze, zamiast r magia sw.

           f          H                   D2         A    E
    Kocham Ci, czasem zapominam, e tylko to liczy si.


   D2         A               E
    Widziaam w Twoich oczach tamten blask,
   D2       A              E
    Kiedy mwie: Kocham pierwszy raz".

      
       A       E        D2      f          E
       Myli i sowa by znowu budowa nowy dzie, (nowy dzie, nowy nowy dzie)
      
       A        E         D2          f              E
       Wichry i burze, to wszystko by znw wiedzie, e
       Kocham Ci 


Kocham Ci, nasza mio zmienia si, tak jak my z kadym dniem.
Tak bardzo kocham Ci i wierz w kade sowo Twe, gdy jeste tu obok mnie.
Widziaam w Twoich oczach tamten blask,
Kiedy mwie: Kocham pierwszy raz".

Myli i sowa by znowu budowa nowy dzie, (nowy dzie, nowy nowy dzie)
Wichry i burze, to wszystko by znw wiedzie, e
Kocham Ci





Solo:


E|------7--9------------------------7/9---7--7------------------------------|
H|-----x-----7---7-7-7--9--10--7----------------10--7---7--10--10-----------|
G|--------------------------------------------------------------------------|
D|--------------------------------------------------------------------------|
A|--------------------------------------------------------------------------|
E|--------------------------------------------------------------------------|





E|-------12--10--9-----------------------------14-------12--11/12--11---------------------------|
H|----10-----------10--10--9/10--9------12--14-------14---------------14--12---9/10-------------|
G|-------------------------------------x--------------------------------------------------------|
D|----------------------------------------------------------------------------------------------|
A|----------------------------------------------------------------------------------------------|
E|----------------------------------------------------------------------------------------------|



E|-----------7/10--9--7-------------------------------------------------------------|
H|----7--10-------------10---6/7---6/7----------------------------------------------|
G|--------------------------------------9---6/7-------------------------------------|
D|------------------------------------------------9----7h9--------------------------|
A|-------------------------------------------------------------9--7-----------------|
E|-------------------------------------------------------------------9--10----------|



I think you`ll enjoy it.


(ziutas9@tlen.pl)
Related for Myli I Sowa tab