Song name
# A B C D E F G H I J K L M N O P Q R S T U V W X Y Z

Baker - Pork Pies For Tea tab

INTRO guitar1 w/wah
-------------------

   C
e|-----------------|----------------|
B|----------8---8--|----------8---8-|
G|------9----------|------9---------|
D|--7-----7-------7|--7-----7-------|
A|-----------------|----------------|
E|-----------------|----------------|
    1   2   3   4     1   2   3   4

   G
e|-----------------|----------------|
B|----------8---8--|----------8---8-|
G|------9----------|------9---------|
D|--7-----7-------7|--7-----7-------|
A|-----------------|----------------|
E|-----------------|----------------|
    1   2   3   4     1   2   3   4

   Bm
e|-----------------|----------------|
B|----------8---8--|----------8---8-|
G|------9----------|------9---------|
D|--7-----7-------7|--7-----7-------|
A|-----------------|----------------|
E|-----------------|----------------|
    1   2   3   4     1   2   3   4

   Em
e|-----------------|----------------|
B|----------8---8--|----------8---8-|
G|------9----------|------9---------|
D|--7-----7-------7|--7-----7-------|
A|-----------------|----------------|
E|-----------------|----------------|
    1   2   3   4     1   2   3   4
Tap to rate this tab
 
# A B C D E F G H I J K L M N O P Q R S T U V W X Y Z