Song name
# A B C D E F G H I J K L M N O P Q R S T U V W X Y Z

Bakkushan - Springwut tab

Ich sah, dass Bakkushan noch gar nicht auf Ultimate Guitar verzeichnet war, was mich 
stoerte, da ich die Tabs selber haben wollte :)... also hab ich sie euch selber rausgesucht =)
muesste glaube ich nah an der originalversion sein :)
GO BAKKUSHAN <3

Guitar 1: (Intro & Verse)
e|------------------------------------|
B|------------------------------------|
G|------------------------------------|
D|-------2-------2-------2------------|
A|--4-424-424-424-424-424-4243333222--|
E|------------------------------------|

Guitar 2: [setzt spaeter ein](pre Chorus)
e|---------------------------------|
B|---------------------------------|
G|---------------------------------|
D|---------------------------------|
A|-2-2222-22-22234-22222-33333333--|
E|---------------------------------|

Refrain:
   Cm A  E  G#
e|-4--5--7--4--|
B|-5--5--9--4--|
G|-6--6--9--5--|
D|-6--7--9--6--|
A|-4--7--7--6--|
E|-4--5--7--4--|

Das erste Riff wird fast durch den kompletten song durchgespielt, hoert euch das lied 
an, wann genau das kommt  =)
Tap to rate this tab
# A B C D E F G H I J K L M N O P Q R S T U V W X Y Z