Song name
# A B C D E F G H I J K L M N O P Q R S T U V W X Y Z

Bakkushan - Springwut tab

Guitar 1: (Intro & Verse)
e|------------------------------------|
B|------------------------------------|
G|------------------------------------|
D|-------4-------4-------4------------|
A|--6-646-646-646-646-646-6465555444--|
E|------------------------------------|

Guitar 2: [setzt spaeter ein](pre Chorus)
e|---------------------------------|
B|---------------------------------|
G|---------------------------------|
D|---------------------------------|
A|-4-4444-44-44456-44444-55555555--|
E|---------------------------------|

Refrain:
  C#m A  E  G#
e|-4--5--7--4--|
B|-5--5--9--4--|
G|-6--6--9--5--|
D|-6--7--9--6--|
A|-4--7--7--6--|
E|-4--5--7--4--|
Tap to rate this tab
 
# A B C D E F G H I J K L M N O P Q R S T U V W X Y Z