Song name
# A B C D E F G H I J K L M N O P Q R S T U V W X Y Z

Bakkushan - Sollbruchstelle tab

Bakkushan - Sollbruchstelle

Hier sind die Tabs von Anfang bis zum ersten Refrain, von da an wiederholt sich 
eigentlich alles nur leicht variiert.
Sollte man hinbekommen, wenn man nicht auf den Kopf gefallen ist ;)



Intro:

e|------------------------------------------------------------|
h|------------------------------------------------------------|
g|-4-4--4-4-6---7-7--7-7-9---11-11--11-11-13---14-14--14-14-14|
d|------------------------------------------------------------|  2x
A|-2-2--2-2-4---5-5--5-5-7---9--9---9--9--11---12-12--12-12-12|
E|------------------------------------------------------------|


Verse:

                 2x
e|----------------|
h|----------------|
g|-------14-------|
d|---12----12--12-|
A|-14--14----14---|
E|----------------|

                 3x
e|----------------|-----------------|
h|----------------|-----------------|
g|-------14-------|--------14-------|
d|---12----12--12-|----11----11--11-|   4x
A|-14--14----14---|--12--12----12---|
E|----------------|-----------------|

                 4x
e|----------------|
h|----------------|
g|-------14-------|
d|---12----12--12-|
A|-14--14----14---|
E|----------------|


Chorus:

G    A   H     2x

2. Gitarre spielt durchgängig
                 
e|----------------|
h|----------------|
g|-------14-------|
d|---12----12--12-|
A|-14--14----14---|
E|----------------|

___________________________________________________________________

e|------------------------------------------------------------|
h|------------------------------------------------------------|
g|-4-4--4-4-6---7-7--7-7-9---11-11--11-11-13---14-14--14-14-14|
d|------------------------------------------------------------|  2x
A|-2-2--2-2-4---5-5--5-5-7---9--9---9--9--11---12-12--12-12-12|
E|------------------------------------------------------------|

G    A   H
Tap to rate this tab
# A B C D E F G H I J K L M N O P Q R S T U V W X Y Z