Balaam And The Angel - Ill Show You Something Special tab

-----------------------------------------------------------------
Balaam and the Angel - I'll Show You Something Special
-----------------------------------------------------------------
Official Band Site: http://www.balaamandtheangel.co.uk/

Tabbed by:Dave Wilson

I created the tab by ear for This cool song. This is how i play it.	


Tuning: Standard EADGBE


INTRO

    pm---|	            pm---|  |-------x4--------|
e|---------------------------|---------------------|------------|
B|---------------------------|---------------------|------------|
G|---------------------------|---------------------|------------|
D|--------5-5-4--------------|-5-5-4---------------|-3-2-0-5----|
A|-5------5-5-5-3h5p3-5------|-5-5-5-3h5p3-5-5p3p0-|-------3----|
E|-5------------------5------|---------------------|------------|
                   

VERSE

e|------------------------------------------------------------------------|
B|------------------------------------------------------------------------|
G|------------------------------------------------------------------------|
D|------------------------------------------------------------------------|
A|-0--5--0--5--3h5p3--0--5--0--5--3h5p3--0--5--0--5--3h5p3--0--5--0--5--5-|
E|------------------------------------------------------------------------|
  		   (pm "open A" twice between notes)


CHORUS

e|---------------------------------------------------------------------|
B|---------------------------------------------------------------------|
G|---------------------------------------------------------------------|
D|-------3-2---------3-2-0-----------5-5-4---------------5-5-4---------|
A|-5---------3-5-----------3-5-5p3p0-5-5-5-3h5p3-5-5p3p0-5-5-5-3h5p3---|
E|-3-----------3-------------------------------------------------------|

e|---------------------------------------------------------------------|
B|---------------------------------------------------------------------|
G|---------------------------------------------------------------------|
D|-5---------------3-2-0-----------5-5-4---------------3-2-0-5---------|
A|-3-------5-------------3-5-5p3p0-5-5-5-3h5p3-5-5p3p0-------3---------|
E|---------3-----------------------------------------------------------|



| h     hammer-on
| p     pull-off
| pm	   palm mute


LYRICS:

Well he takes you up
And he beats you down yeah
He plays around and he spends your money

Heaven knows when that feeling goes
I'll show you something special oh yeah
I'll take the sadness from your smile
I'm gonna show you something special

Take me before you break me up
I feel it growing
It drives me crazy oh

Heaven knows I've been waiting
Waiting for you to come around
I'll take the sadness from your smile
I'm gonna show you something special

Heaven knows if you're gonna stop
I'll show you something special oh yeah
I'll take the sadness from your smile
I'm gonna show you something special

Heaven knows I've been waiting
Waiting for you to come around oh yeah
I'll take the sadness from your smile
I'm gonna show you something special
Tap to rate this tab
 
# A B C D E F G H I J K L M N O P Q R S T U V W X Y Z