Guitaretab - guitar tabs
Song name
# A B C D E F G H I J K L M N O P Q R S T U V W X Y Z

Balance And Composure - Show Your Face tab

Intro:

Guitar 1
e|------------------------------------------------------------------------|
B|------------------------------------------------------------------------|
G|-6--4--------------------------4/6-6-6----------------------------------|
D|-------6--6--6---4--2---------------------------------------------------|
A|-----------------------2/4--4-------------------------------------------|
E|------------------------------------------------------------------------|

Guitar 2
e|------------------------------------------------------------------------|
B|------------------------------------------------------------------------|
G|--6-6-6-6-6-6-6-6-------------------------------------------------------|
D|--6-6-6-6-6-6-6-6--2-2-2-2-2-2-2-2--7-7-7-7-7-7-7-7--2-2-2-2--4-4-4-4---|
A|--4-4-4-4-4-4-4-4--2-2-2-2-2-2-2-2--7-7-7-7-7-7-7-7--2-2-2-2--4-4-4-4---|
E|-------------------0-0-0-0-0-0-0-0--5-5-5-5-5-5-5-5--0-0-0-0--2-2-2-2---|


Verse:

Guitar 2
e|------------------------------------------------------------------------|
B|------------------------------------------------------------------------|
G|--6-6-6-6-6-6-6-6-------------------------------------------------------|
D|--6-6-6-6-6-6-6-6--2-2-2-2-2-2-2-2--7-7-7-7-7-7-7-7--2-2-2-2--4-4-4-4---|
A|--4-4-4-4-4-4-4-4--2-2-2-2-2-2-2-2--7-7-7-7-7-7-7-7--2-2-2-2--4-4-4-4---|
E|-------------------0-0-0-0-0-0-0-0--5-5-5-5-5-5-5-5--0-0-0-0--2-2-2-2---|

P.M.- - - - - - - -  - - - - - - - -  - - - - - - - -  - - - -  - - - -

Guitar 1
e|-----7~-----------------9~-------------------7~-------------------------|
B|--------9~--(0:47)---------9~--(0:51)-----------9~--(0:54)---6~-(0:57)--|
G|------------------------------------------------------------------------|
D|------------------------------------------------------------------------|
A|------------------------------------------------------------------------|
E|------------------------------------------------------------------------|


Pre-Chorus:

Guitar 2
e|------------------------------------------------------------------------|
B|------------------------------------------------------------------------|
G|-------6-6-6-6-6/-------------------------------------------------------|
D|-------6-6-6-6-6/-------------------------------------------------------|
A|-------4-4-4-4-4/-------------------------------------------------------|
E|------------------------------------------------------------------------|

Chorus:

Guitar 1
e|------------------------------------------------------------------------|
B|------------------------------------------------------------------------|
G|----------4---------6-4-------------------------------------------------|
D|----6-4-6---6-6-4-6-----6-----------------------------------------------|
A|--4---------------------------------------------------------------------|
E|------------------------------------------------------------------------|

Guitar 2
e|------------------------------------------------------------------------|
B|------------------------------------------------------------------------|
G|--6-6-6-6-6-6-6-6-------------------------------------------------------|
D|--6-6-6-6-6-6-6-6--2-2-2-2-2-2-2-2--7-7-7-7-7-7-7-7--2-2-2-2--4-4-4-4---|
A|--4-4-4-4-4-4-4-4--2-2-2-2-2-2-2-2--7-7-7-7-7-7-7-7--2-2-2-2--4-4-4-4---|
E|-------------------0-0-0-0-0-0-0-0--5-5-5-5-5-5-5-5--0-0-0-0--2-2-2-2---|


Post Chorus:

Guitar 2
e|------------------------------------------------------------------------|
B|------------------------------------------------------------------------|
G|--6~--------------------------------------------------------------------|
D|--6~-----2~-----7~------------------------------------------------------|
A|--4~-----2~-----7~------------------------------------------------------|
E|---------0~-----5~------------------------------------------------------|
[ Tab from: http://www.guitaretab.com/b/balance-and-composure/250263.html ]
Guitar 1
e|------------------------------------------------------------------------|
B|------------------------------------------------------------------------|
G|------------------------------------------------------------------------|
D|--6--6-6-6---6-6-6-6----6--6-6-6---6-6-6-6------------------------------|
A|------------------------------------------------------------------------|
E|------------------------------------------------------------------------|


Bridge:

Guitar 1
e|------------------------------------------------------------------------|
B|------------------------------------------------------------------------|
G|----6-4-6-4-------------------------------4-6-4-------------------------|
D|--------------6-4-6-4-6-4---4---6-4-6-4-6-------6b----------------------|
A|--------------------------7---4--------------------7--------------------|
E|------------------------------------------------------------------------|

Pre-Chorus:

Guitar 2
e|------------------------------------------------------------------------|
B|------------------------------------------------------------------------|
G|--6~--------------------------------------------------------------------|
D|--6~-----2~-----7~------------------------------------------------------|
A|--4~-----2~-----7~------------------------------------------------------|
E|---------0~-----5~------------------------------------------------------|


Guitar 1
e|------------------------------------------------------------------------|
B|------------------------------------------------------------------------|
G|-------9~--------------------9~-----------------------------------------|
D|--11~-------9-9h11~----11~--------9-9h11~-------------------------------|
A|------------------------------------------------------------------------|
E|------------------------------------------------------------------------|

Whatever effing part:
Guitar 2
e|------------------------------------------------------------------------|
B|------------------------------------------------------------------------|
G|--6-6-6-6-6-6-6-6-------------------------------------------------------|
D|--6-6-6-6-6-6-6-6--2-2-2-2-2-2-2-2--7-7-7-7-7-7-7-7--2-2-2-2--4-4-4-4---|
A|--4-4-4-4-4-4-4-4--2-2-2-2-2-2-2-2--7-7-7-7-7-7-7-7--2-2-2-2--4-4-4-4---|
E|-------------------0-0-0-0-0-0-0-0--5-5-5-5-5-5-5-5--0-0-0-0--2-2-2-2---|


Chorus:

Guitar 1
e|------------------------------------------------------------------------|
B|------------------------------------------------------------------------|
G|----------4---------6-4-------------------------------------------------|
D|----6-4-6---6-6-4-6-----6-----------------------------------------------|
A|--4---------------------------------------------------------------------|
E|------------------------------------------------------------------------|


Guitar 2
e|------------------------------------------------------------------------|
B|------------------------------------------------------------------------|
G|--6-6-6-6-6-6-6-6-------------------------------------------------------|
D|--6-6-6-6-6-6-6-6--2-2-2-2-2-2-2-2--7-7-7-7-7-7-7-7--2-2-2-2--4-4-4-4---|
A|--4-4-4-4-4-4-4-4--2-2-2-2-2-2-2-2--7-7-7-7-7-7-7-7--2-2-2-2--4-4-4-4---|
E|-------------------0-0-0-0-0-0-0-0--5-5-5-5-5-5-5-5--0-0-0-0--2-2-2-2---|

Outro:

Guitar 1
e|------------------------------------------------------------------------|
B|------------------------------------------------------------------------|
G|----------4---------6-4--------------4---------6-4~---------------------|
D|----6-4-6---6-6-4-6-----6------6-4-6---6-6-4-6--------------------------|
A|--4--------------------------4------------------------------------------|
E|------------------------------------------------------------------------|

Yeah I know there's chords missing underneath the bridge and some other part.  Grow up 
figure it out yourself.

It's not exact, but it's a start

http://balanceandcomposure.tumblr.com/
Related for Show Your Face tab
Show Your Face chords by Balance And Composure