Balance And Composure - I Cant Do This Alone tab

I'm too lazy to tab out the strumming patterns, they're easy enough to work out if you 
just listen to the song...

Intro/Verse
e|------------------------------------------------------------------------|
B|------------------------------------------------------------------------|
G|----------------0--0----------------------------------------------------|
D|--------2--2-----2--2---------------------------------------------------|
A|--0-0----0--0-----------------------------------------------------------|
E|----------3--1-1--1-----------------------------------------------------|

e|------------------------------------------------------------------------|
B|------------------------------------------------------------------------|
G|------------------------------------------------------------------------|
D|--7---5---3-------------------------------------------------------------|
A|--7---5---3----repeat as needed-----------------------------------------|
E|--5---3---1-------------------------------------------------------------|
"And the thought of it shakes all my bones..."

Instrumental Bridge  bit -
e|------------------------------------------------------------------------|
B|------------------------------------------------------------------------|
G|---7---14---9-----------------------------------------------------------|
D|---x---x----x------(I think, sounds alright to me)----------------------|
A|---5---12---7-----------------------------------------------------------|
E|------------------------------------------------------------------------|


e|-------------------------------------------0~----------------------------|
B|-------------------------------------------0~----------------------------|
G|-------------------------------------------0~----------------------------|
D|---3---7---5-------------------------------0~----------------------------|
A|---3---7---5---After the second time round-0~---then continue as normal--|
E|---1---5---3-------------------------------0~----------------------------|
     x   x   x
"Rest now, for you lie in the arms of another man, hand in hand..."

e|------------------------------------------------------------------------|
B|------------------------------------------------------------------------|
G|------------------------------------------------------------------------|
D|--7---5---3~------------------------------------------------------------|
A|--7---5---3~----repeat as needed----------------------------------------|
E|--5---3---1~------------------------------------------------------------|
"I always see you in my sleep..."

Outro
e|------------------------------------------------------------------------|
B|------------------------------------------------------------------------|
G|----------------0--0----------------------------------------------------|
D|--------2b-2b----2--2----repeat as needed-------------------------------|
A|--0-0----0--0-----------------------------------------------------------|
E|----------3--1-1--1-----------------------------------------------------|
"I can't think of a single thing out there, that can soothe..."

End on...

e|------------------------------------------------------------------------|
B|------------------------------------------------------------------------|
G|------------------------------------------------------------------------|
D|----2~------------------------------------------------------------------|
A|----x-------------------------------------------------------------------|
E|----1~------------------------------------------------------------------|

As far as I know this is all pretty much right, such an easy and fun song to play. Feel 
free to comment with any corrections
Tap to rate this tab
 
# A B C D E F G H I J K L M N O P Q R S T U V W X Y Z