Song name
# A B C D E F G H I J K L M N O P Q R S T U V W X Y Z

Balance And Composure - I Cant Do This Alone tab

-----------------------------------------------------------------------------
	        I Can't Do This Alone - Balance And Composure
-----------------------------------------------------------------------------
Tabbed by: mikelo27



  INTRO:
e|--------------------------------------------------------------------------|
B|--------------------------------------------------------------------------|
G|------------------------2--------2----------------------------------------|
D|------4-----4-------------4--------4----X8--------------------------------|
A|--2-2---2-0---2-----------------------------------------------------------|
E|----------------3----3--------3-------------------------------------------|
  (on 8th time, end on strum.... 3042xx)
e|--------------------------------------------------------------------------|
B|--------------------------------------------------------------------------|
G|---2----------------------------------------------------------------------|
D|---2------5-----3----3--------X4------------------------------------------|
A|----------5-----3----3----------------------------------------------------|
E|----------3-----1----1----------------------------------------------------|
  ( 2nd time through, "and the thought of it...")
e|--------------------------------------------------------------------------|
B|----2---2-----------------------------------------------------------------|
G|----3---3----5-----2------------------------------------------------------|
D|-------------5-----2------X4----------------------------------------------|
A|-------------3------------------------------------------------------------|
E|--------------------------------------------------------------------------|
   (^interlude)
e|--------------------------------------------------------------------------|
B|--------------------------------------------------------------------------|
G|--------------5-----------------------------------------------------------|
D|--3---3---7---5---------X8------------------------------------------------|
A|--3---3---7---3-----------------------------------------------------------|
E|--1---1---5---------------------------------------------------------------|
   (3rd time through, "Rest now, for...")
e|--------------------------------------------------------------------------|
B|--------------------------------------------------------------------------|
G|--------------------------------------------------------------------------|
D|---7----5---3---------------X4--------------------------------------------|
A|---7----5---3*let ring*---------------------------------------------------|
E|---5----3---1-------------------------------------------------------------|
             (i always see you in my sleep...) 

Repeat INTRO for last 2 lines of song.



this is my 1st tab so cut me some slack. the strum patterns arent difficult to figure out. enjoy.

Tap to rate this tab
 
# A B C D E F G H I J K L M N O P Q R S T U V W X Y Z