Song name
# A B C D E F G H I J K L M N O P Q R S T U V W X Y Z

Balance And Composure - Weak Man Weak Boy tab

	

        Weak Man, Weak Boy - Balance & Composure                           


Tabbed by: Kamdude
Email: triathlete_max@hotmail.com

Tuning: Standard

e|---------------------------------------------------------------------------|
B|---------------------------------------------------------------------------|
G|------------------------------------------0-------------------------0------|
D|--3-3-3-3-3-3-3-3-3-2-2-2-2-2-2-2-2-2-----x-------------3-3-3-3-3-3-3-3-3--|
A|--3-3-3-3-3-3-3-3-3-3-3-3-3-3-3-3-3-3-2-2-2-2-2-2-2-2-2-3-3-3-3-3-3-3-3-3--|
E|--------------------------------------3-3-3-3-3-3-3-3-3--------------------|

e|---------------------------------------------------------------------------|
B|---------------------------------------------------------------------------|
G|--------------------------0----------0------------------------------0------|
D|--3-3-3-3-3-3-3-3-3-2-2-2-2-2-2-2-2-2-------------------3-3-3-3-3-3-3-3-3--|
A|--3-3-3-3-3-3-3-3-3-3-3-3-3-3-3-3-3-3-2-2-2-2-2-2-2-2-2-3-3-3-3-3-3-3-3-3--|
E|--------------------------------------3-3-3-3-3-3-3-3-3--------------------|

Bow Your head close your eyes...
e|---------------------------------------------------------------------------|
B|---------------------------------------------------------------------------|
G|-------------------0-----------------0-----------------------------------0-|
D|--3-3-3-3-3-3-3-3-3-2-2-2-2-2-2-2-2-2-------------------3-3-3-3-3-3-3-3-3--|
A|--3-3-3-3-3-3-3-3-3-3-3-3-3-3-3-3-3-3-2-2-2-2-2-2-2-2-2-3-3-3-3-3-3-3-3-3--|
E|--------------------------------------3-3-3-3-3-3-3-3-3--------------------|  
  
He's been there your...                                                   
e|---------------------------------------------------------------------------|
B|---------------------------------------------------------------------------|
G|--------------------------------0---------0---0---0-----------2------------|
D|--3-3-3-3-3-3-3-3-3-2-2-2-2-2-2-2-2-2-----x---x---x-----3-3-3-3-3-3-3-3-3--|
A|--3-3-3-3-3-3-3-3-3-3-3-3-3-3-3-3-3-3-2-2-2-2-2-2-2-2-2-3-3-3-3-3-3-3-3-3--|
E|--------------------------------------3-3-3-3-3-3-3-3-3--------------------|
  

He's not like other
e|---------------------------------------------------------------------------|
B|---------------------------------------------------------------------------|
G|-------------------0-----------------0-----------------------------------0-|
D|--3-3-3-3-3-3-3-3-3-2-2-2-2-2-2-2-2-2-------------------3-3-3-3-3-3-3-3-3--|
A|--3-3-3-3-3-3-3-3-3-3-3-3-3-3-3-3-3-3-2-2-2-2-2-2-2-2-2-3-3-3-3-3-3-3-3-3--|
E|--------------------------------------3-3-3-3-3-3-3-3-3--------------------|  
                                                                           

But now he's lost...
e|---------------------------------------------------------------------------|
B|---------------------------------------------------------------------------|
G|--------------------------------0---------0---0---0-----------2------------|
D|--3-3-3-3-3-3-3-3-3-2-2-2-2-2-2-2-2-2-----x---x---x-----3-3-3-3-3-3-3-3-3--|
A|--3-3-3-3-3-3-3-3-3-3-3-3-3-3-3-3-3-3-2-2-2-2-2-2-2-2-2-3-3-3-3-3-3-3-3-3--|
E|--------------------------------------3-3-3-3-3-3-3-3-3--------------------|


So carry on with
e|---------------------------------------------------------------------------|
B|-------------0-------------------------------------------------------------|
G|-------------x-----------2-----------------------5----4--------------------|
D|-5-5-5-5-5-5-5-5-5-3-3-3-3-3-3-3-3-3-7-7-7-7-7-7-7-7-7-5-5-5-5-5-5-5-5-5---|
A|-5-5-5-5-5-5-5-5-5-3-3-3-3-3-3-3-3-3-7-7-7-7-7-7-7-7-7-5-5-5-5-5-5-5-5-5---|
E|---------------------------------------------------------------------------|

Deep inside
e|---------------------------------------------------------------------------|
B|---------------------------------------------------------------------------|
G|---------------------------------------------------------------------------|
D|-3-3-3-3-3-3-3-3-----------------------------------------------------------|
A|-3-3-3-3-3-3-3-3-2---------------------------------------------------------|
E|-----------------3---------------------------------------------------------|


Second Guitar

e|---------------------------------------------------------------------------|
B|---------------------------------------------------------------------------|
G|---------------------------------------------------------------------------|
D|--10---9--7/5--7-5------2p0-----------------------5------------------------|
A|-----------------------------3---5--7--5-----------------------------------|
E|---------------------------------------------------------------------------|


This is the part now where the percussion comes in. Everything is essentially repeated, until..

 @ 2:50

e|---------------------------------------------------------------------------|
B|-13-13-12-12-10/8--10--8------------------------------8--------8--------8--|
G|---------------------------9h7--5--7---9--7-------5h7------5h7-----5h7-----|
D|---------------------------------------------------------------------------|  X2
A|---------------------------------------------------------------------------|
E|---------------------------------------------------------------------------|


e|---------------------------------------------------------------------------|
B|-13-13-12-12-10/8--10--8/10--8---8--8-----8-----------------8--------------|
G|-------------------------------9------7/9---9-9--7-7-5--7/9---9-9--7-7-5---|
D|---------------------------------------------------------------------------|
A|---------------------------------------------------------------------------|
E|---------------------------------------------------------------------------|


I think this should be it, have fun and rate
Tap to rate this tab
 
# A B C D E F G H I J K L M N O P Q R S T U V W X Y Z