Song name
# A B C D E F G H I J K L M N O P Q R S T U V W X Y Z

Balance And Composure - I Just Want To Be Pure tab

this is just the intro but it also plays through out the whole song.

e----8-------------------------------------------------------------------------|
B-------6-5-6/5/6/5------------------------------------------------------------|
G--5----------------5----------------------------------------------------------|
D------------------------------------------------------------------------------|
A------------------------------------------------------------------------------|
E------------------------------------------------------------------------------|

you can also play it with hammers and pulls (which is tabbed below) instead of slides if 
you prefer but i think the slides sound more like the track.

e----8-------------------------------------------------------------------------|
B-------6-5-6p5h6p5------------------------------------------------------------|
G--5----------------5----------------------------------------------------------|
D------------------------------------------------------------------------------|
A------------------------------------------------------------------------------|
E------------------------------------------------------------------------------|
Tap to rate this tab
 
# A B C D E F G H I J K L M N O P Q R S T U V W X Y Z