Song name
# A B C D E F G H I J K L M N O P Q R S T U V W X Y Z

Balance And Composure - Echo tab

Echo - Balance And Composure
tabbed by joetinks

This song has a verse chorus verse chorus structure, but all parts use the same chord progression.

I would play this in Standard.

e|-----------------------------------------------|
B|-----------------------------------------------|
G|-----------------------------------------------|
D|--10-10-10-10-10-10-10-10--6-6-6-6-6-6-6-6-----|
A|--10-10-10-10-10-10-10-10--6-6-6-6-6-6-6-6-----|
E|--8--8--8--8--8--8--8--8---4-4-4-4-4-4-4-4-----|

e|----------------------------------------|
B|----------------------------------------|
G|----------------------------------------|
D|----6-6-6-6-6-6-6-6--6-6-6-6-6-6-6-6----|
A|----6-6-6-6-6-6-6-6--6-6-6-6-6-6-6-6----|
E|----4-4-4-4-4-4-4-4--4-4-4-4-4-4-4-4----|

It honestly doesn't change. If you're feeling outrageous, you can change it to Cmin 
chord (bar on the 8th fret) and a Abmaj chord (bar 4th fret, G string 5th fret)

e|--8------4--|
B|--8------4--|
G|--8------5--|
D|--10-----6--|
A|--10-----6--|
E|--8------4--|

Also, the rhythm is slightly different in the first verse.
Tap to rate this tab
 
# A B C D E F G H I J K L M N O P Q R S T U V W X Y Z