Song name
# A B C D E F G H I J K L M N O P Q R S T U V W X Y Z

Balance And Composure - Alone For Now tab

-------------------------------------------------------------------------------
			     Alone For Now - Balance And Composure
-------------------------------------------------------------------------------
Tabbed by: kamdude
Email: triathlete_max@hotmail.com

[Intro]

e|---------------------------------------------------------------------------|
B|---------------------------------------------------------------------------|
G|------6-------6-------6-------6--------------------------------------------| x6
D|----6---6---6---6---6---6---6---6------------------------------------------|
A|--4-------4-------0-------0------------------------------------------------|
E|---------------------------------------------------------------------------|

[Harmonics]

e|--12+-12+-----------------7+-7+--------------------------------------------|
B|----------12+-12+---7+-7+--------------------------------------------------|
G|--------------------------------5+-5+--------------------------------------|
D|---------------------------------------------------------------------------|
A|---------------------------------------------------------------------------|
E|---------------------------------------------------------------------------|


[Next guitar]
e|---------------------------------------------------------------------------|
B|---------------------------------------------------------------------------|
G|---------------------------------------------------------13/16-------------|
D|--13--11--9-----13--11--9---7-6---13--11--9----13--11--9-------------------|
A|---------------------------------------------------------------------------|
E|---------------------------------------------------------------------------|

e|---------------------------------------------------------------------------|
B|---------------------------------------------------------------------------|
G|--9-9-9-9-9-9-9-9-9-9-9-9-9-9-9--------------------------------------------|
D|---------------------------------------------------------------------------|
A|---------------------------------------------------------------------------|
E|---------------------------------------------------------------------------|

[chorus]
e|---------------------------------------------------------------------------|
B|---------------------------------------------------------------------------|
G|--13-13-13-16---9---13-13-13-16---9---11-11-11-11---9-9-9-9----------------|
D|------------------------------------------------------------9---7/9--------|
A|---------------------------------------------------------------------------|
E|---------------------------------------------------------------------------|

e|---------------------------------------------------------------------------|
B|---------------------------------------------------------------------------|
G|-13/16---9/11---11/13------------------------------------------------------| x2
D|------------------------9/11-----------------------------------------------|
A|---------------------------------------------------------------------------|
E|---------------------------------------------------------------------------|

e|---------------------------------------------------------------------------|
B|---------------------------------------------------------------------------|
G|---------------------------------------------------------------------------| 
D|-11-11-11-11---9----7/9-----9----------------------------------------------|
A|---------------------------------------------------------------------------|
E|---------------------------------------------------------------------------|


************************************

| /   slide up
| \   slide down
| h   hammer-on
| p   pull-off
| ~   vibrato
| +   harmonic
| x   Mute note
| b   Bend
| pb  Pre-bend
| br  Bend release
| pbr Pre-bend release
| brb Bend release bend

************************************
Tap to rate this tab
# A B C D E F G H I J K L M N O P Q R S T U V W X Y Z