Song name
# A B C D E F G H I J K L M N O P Q R S T U V W X Y Z

Balance And Composure - Alone For Now tab

kamdude's version is right for the most part, but I just wanted to edit parts
of it that I thought sounded more accurate. This is my first tab so bare 
with my if I made any mistakes. I didn't add in when to exactly play what 
parts, but if you follow the order and listen to the song it's fairly simple.
I know there's more guitar parts to this song, and I'll try to figure those out 
eventually. Hope you enjoys it, and if you have any questions or comments feel 
free to email me at trumanboyes@ymail.com



[Intro]

e|---------------------------------------------------------------------------|
B|---------------------------------------------------------------------------|
G|------6-------6-------6-------6--------------------------------------------| x6
D|----6---6---6---6---6---6---6---6------------------------------------------|
A|--4-------4-------0-------0------------------------------------------------|
E|---------------------------------------------------------------------------|

[Harmonics]

e|--12+-12+-----------------7+-7+--------12+-12+-----------------7+-7+-7+----|
B|----------12+-12+---7+-7+----------------------12+-12+---7+-7+-------------|
G|--------------------------------5+-5+--------------------------------------|
D|---------------------------------------------------------------------------|
A|---------------------------------------------------------------------------|
E|---------------------------------------------------------------------------|


[Next guitar]
e|---------------------------------------------------------------------------|
B|---------------------------------------------------------------------------|
G|---------------------------------------------------------13/16-------------| x2
D|---11/13--9-----11/13--9----7-6---11/13--9-----11/13--9--------------------|
A|---------------------------------------------------------------------------|
E|---------------------------------------------------------------------------|

e|---------------------------------------------------------------------------|
B|---------------------------------------------------------------------------|
G|-----------------------------13----11----9---------------13/16-------------|
D|---11/13--9----11/13--9----------------------------------------------------|
A|---------------------------------------------------------------------------|
E|---------------------------------------------------------------------------|

e|---------------------------------------------------------------------------|
B|---------------------------------------------------------------------------|
G|---------------------------------9-9-9-9-9-9-9-9-9-9-9-9-9-9-9-------------|
D|---11/13--9----------------------------------------------------------------|
A|---------------------------------------------------------------------------|
E|---------------------------------------------------------------------------|

[Chorus]
e|---------------------------------------------------------------------------|
B|---------------------------------------------------------------------------|
G|--13-13-13-16---9---13-13-13-16---9---11-11-11-11---9-9-9-9----------------|
D|------------------------------------------------------------9---7/9----13--|
A|---------------------------------------------------------------------------|
E|---------------------------------------------------------------------------|

e|---------------------------------------------------------------------------|
B|---------------------------------------------------------------------------|
G|--13/16---13\9---9/11------11/13-------------------------------------------| x2
D|------------------------------------13\11---11/13--13-13-13-13-------------|
A|---------------------------------------------------------------------------|
E|---------------------------------------------------------------------------|

e|---------------------------------------------------------------------------|
B|---------------------------------------------------------------------------|
G|---------------------------------------------------------------------------| 
D|-11-11-11-11---9----7/9-----13---------------------------------------------|
A|---------------------------------------------------------------------------|
E|---------------------------------------------------------------------------|


************************************

| /   slide up
| \   slide down
| h   hammer-on
| p   pull-off
| ~   vibrato
| +   harmonic
| x   Mute note
| b   Bend
| pb  Pre-bend
| br  Bend release
| pbr Pre-bend release
| brb Bend release bend

************************************
Tap to rate this tab
 
# A B C D E F G H I J K L M N O P Q R S T U V W X Y Z