Song name
# A B C D E F G H I J K L M N O P Q R S T U V W X Y Z

Balance And Composure - Stonehands tab

[Standard tuning]

Intro:

e| ----------------------------------|
B| ------------0---------0---------0-|
G| --------0---------0---------0-----|      Repeat after first ending
D| --0h2-2---2---2-2---2---2-2---2---|    then continue to second ending
A| --3---3---3---3-3---3---3-3---3---|
E| --3---3---3---3-3---3---3-3---3---|      *Let open strings ring

Intro Endings:

1.                 2.
e|-----------|     e|-------------|
B|-----------|     B|-------------|
G|-----------|     G|-------------|
D|-0-000-----|     D|-000-00-0----|
A|-2-222h3---|     A|-777-22------|
E|-0-000-----|     E|-000-00------|

Verses:

e| -----------------------------------------------|
B| ------------0---------0---------0--------------|
G| --------0---------0---------0------------------|
D| --0h2-2---2---2-2---2---2-2---2----000-00-0----|  Repeat necessary times
A| --3---3---3---3-3---3---3-3---3----777-22------|
E| --3---3---3---3-3---3---3-3---3----000-00------|

     "Don't say goodbye to me too fast...."


Bridge Intro (Simple little riff):

e|-------------0----|
B|-0----0------0----|
G|-0----0------0----|
D|-2-x4-2-x4---7-x6-|  x2
A|-3----3------7----|
E|-3----3------5----|


Bridge (Simple riff):

e|------------------------|
B|------------------------|
G|-0-----4-----5----------|
D|-2-x5--5-x5--5-x5--7-x5-|  x6 (Goes into vocal part by the 2nd
A|-2-----5-----3-----7----|              time you repeat)
E|-0-----3-----------5----|


For the [Outro], just use the verse/intro riff.
Tap to rate this tab
# A B C D E F G H I J K L M N O P Q R S T U V W X Y Z