Song name
# A B C D E F G H I J K L M N O P Q R S T U V W X Y Z

Balance And Composure - Alone For Now tab

[Intro]

e|---------------------------------------------------------------------------|
B|---------------------------------------------------------------------------|
G|------6-------6-------6-------6--------------------------------------------| x6
D|----6---6---6---6---6---6---6---6------------------------------------------|
A|--4-------4-------0-------0------------------------------------------------|
E|---------------------------------------------------------------------------|

e|---------------------------------------------------------------------------|
B|---5-5-5-5-5-5-5-5-5-5-5/17------------------------------------------------|
G|---------------------------------------------------------------------------|
D|---------------------------------------------------------------------------|
A|---------------------------------------------------------------------------|
E|---------------------------------------------------------------------------|

[Harmonics]

e|--12+---------------5+--7+------12+------------ 7+-------------------------|
B|--------12+-----7+-------------------12+---7+------------------------------|
G|---------------------------------------------------------------------------|
D|---------------------------------------------------------------------------|
A|---------------------------------------------------------------------------|
E|---------------------------------------------------------------------------|
*these have delay on them in the song. so repeat them to play them according to the song, or not*


[Next guitar]
e|--4--7-----4--7-----------------------0-----0------------------------------|
B|--------5--------5--7--5--5--5--5--0-----0-------------4-------------------|
G|-----------------------------------------------2/4--4------4---------------| x2
D|---------------------------------------------------------------------------|
A|---------------------------------------------------------------------------|
E|---------------------------------------------------------------------------|

e|--4h7-------------------------------------0-----0--------------------------|
B|-------5h7--7/9------------------------0-----0--------------4--------------|
G|-----------------4/6--6/8--6--6--6--6--------------2/4--4------4-----------|
D|---------------------------------------------------------------------------|
A|---------------------------------------------------------------------------|
E|---------------------------------------------------------------------------|


************************************

| /   slide up
| \   slide down
| h   hammer-on
| p   pull-off
| ~   vibrato
| +   harmonic
| x   Mute note
| b   Bend
| pb  Pre-bend
| br  Bend release
| pbr Pre-bend release
| brb Bend release bend

************************************
Tap to rate this tab
# A B C D E F G H I J K L M N O P Q R S T U V W X Y Z