Song name
# A B C D E F G H I J K L M N O P Q R S T U V W X Y Z

Balance And Composure - More To Me tab

More To Me intro by Balance and Composure. There wasn’t a tab anywhere so I 
decided to put the intro up.

/ - Slide
p- Pull Off
h -Hammer on


e| ------------12----------------------------------|
B| ------------------------------------8h10p8------|
G| -------9-------9-----9-------9---0----------9---| 
D| -7/10----10-------10---10-10--------------------| 
A| ------------------------------------------------|
E| ------------------------------------------------| 


e| --------------------------------8p7p0-----|
B| -----------8------------------------------|
G| ------9------7----9-------9---------------| 
D| -5/7-----7-----7----7--7-----0------------| 
A| ------------------------------------------|
E| ------------------------------------------| 

There it is. Listen to the song to get the timing down, and remember it's in E flat.
Tap to rate this tab
# A B C D E F G H I J K L M N O P Q R S T U V W X Y Z