Song name
# A B C D E F G H I J K L M N O P Q R S T U V W X Y Z

Balance And Composure - Stonehands Acoustic tab

Balance and Composure
Stonehands - Acoustic
Video: http://www.youtube.com/watch?v=Ad7pP-CydDs

Intro/Verses
"Don't say goodbye..."                 First Ending    Second Ending
e:-------------------------------------------------:||:-------------:|
B:----------0~----------0~----------0~-------------:||:-------------:|
G:-0-----0~----0-----0~----0-----0~----0---0-0-0-0-:||:-0-0-0-0-0-0-:|
D:-0h2---------0h2---------0h2---------0---0-0-0-0-:||:-0-0-0-0-0-0-:|
A:-3----3--3---3----3--3---3----3--3---2---2-2-2-2-:||:-7-7-7-2-2-2-:|
E:-3----3--3---3----3--3---3----3--3---0---0-3-3-3-:||:-0-0-0-0-0-0-:|

Between Verses:

e:--------------------------------------------------|
B:-0----3--0---------------0----3p0--0--------------|
G:-0----0--0--0-0-0-0-0-0--0----0----0--0-0-0-0-0-0-|
D:-0h2--2--2--0-0-0-0-0-0--0h2--2----2--0-0-0-0-0-0-|
A:-3----3--3--2-2-2-2-2-2--3----3----3--7-7-7-2-2-2-|
E:-3----3--3--0-0-0-3-3-3--3----3----3--0-0-0-0-0-0-|

Guitar 2 Riff:
(Guitar 1 plays the between verses part)
e:-----------------------------------------|
B:-----------------------------------------|
G:-7h9--9p7--7\4--4\2p0-2h4p2-0--0h2/4-4---|
D:-----------------------------------------|
A:-----------------------------------------|
E:-----------------------------------------|

Pre Chorus:

e:-0-x-0-x----------------------------|
B:-0-x-0-x-0--0--0--0-----0--0--0--3b~|
G:-0-x-0-x-2--0--0--0--0--0--0--0--0~~|
D:-2-x-2-x-2--2--0--2--0--2--0--2--2~~|
A:-0-x-0-x-0--2--2--3--2--2--2--3--0~~|
E:-3-x-3-x----0--3-----3--0--3--------|

Chorus:
"I know you've got hands of stone..."
e:-------------------------|
B:-0--0--0--0--0--0--0--3--|
G:-0--0--0--0--0--0--0--0--|
A:-2--0--2--0--2--0--2--2--|
D:-2--2--3--2--2--2--3--0--|
E:-0--3-----3--0--3--------|

Between Verses Again
"Ooohhhh.."
e:--------------------------------------------------|
B:-0----3--0---------------0----3p0--0--------------|
G:-0----0--0--0-0-0-0-0-0--0----0----0--0-0-0-0-0-0-|
D:-0h2--2--2--0-0-0-0-0-0--0h2--2----2--0-0-0-0-0-0-|
A:-3----3--3--2-2-2-2-2-2--3----3----3--7-7-7-2-2-2-|
E:-3----3--3--0-0-0-3-3-3--3----3----3--0-0-0-0-0-0-|

Guitar 2 Riff:
(Guitar 1 plays the between verses part)
e:-----------------------------------------|
B:-----------------------------------------|
G:-7h9--9p7--7\4--4\2p0-2h4p2-0--0h2/4-4---|
D:-----------------------------------------|
A:-----------------------------------------|
E:-----------------------------------------|


Ending:

e:-----x-----x-------|
B:-0~--x-0~--x-0--0~-|
G:-0~--x-0~--x-2--0~-|
D:-2~--x-2~--x-2--2~-|
A:-3~--x-3~--x-0--2~-|
E:-3~--x-3~--x----0~-|

Listen to figure out the strumming patterns.

Enjoy!

Torrin Mauck
Tap to rate this tab
 
# A B C D E F G H I J K L M N O P Q R S T U V W X Y Z