Song name
# A B C D E F G H I J K L M N O P Q R S T U V W X Y Z

Balance And Composure - Reflection tab

Reflection by balance and composure
Tabbed by Liam Zanin

TUNING: DROP D
Intro:
e|----------------------------------------------------------------------|
B|----------------------------------------------------------------------|
G|---------------------------------------------------------------------|
D|------4/7---7/9---9h11---11b---4--------------------------------------|
A|---------------------------------------------------------------------|
E|--00------0------0-------0-------0------------------------------------|

e|-----------------------------------------------------------------------|
B|-----------------------------------5------7----------------------------|
G|---------------------------------6--6/9--------------------------------|
D|------4/7---7/9---9h11-------------------------------------------------|
A|-----------------------------------------------------------------------|
E|--00------0------0--------0--------------------------------------------|

verse: (Just chords)
e|---------------------------------------------------------|
B|---------------------------------------------------------|
G|---------------------------------------------------------|
D|--7---4--------4-----------------------------------------|
A|--5---4---4---2------------------------------------------|
E|-----------4---------------------------------------------|
pre chorus:
e|--------------------------------|
B|--------------------------------|
G|--------------------------------|
D|11--11--11----------------------|
A|-7---9----9---------------------|
E|-7---9----0---------------------|
chorus:
e|----------------------------------------------------------------------------|
B|----------------------------------------------------------------------------|
G|----------------------------------------------------------------------------|
D|------7---------------------------------------------------------------------|
A|-4---5---9---7--(hit 0 while changing back to 4)---------------------------|
E|-4---0---9---7--(-----------0-----------------------------------4)----------|
Post chorus/Outro:
just open E, A, and D strings. bend 6 on G during outro
Tap to rate this tab
# A B C D E F G H I J K L M N O P Q R S T U V W X Y Z