Song name
# A B C D E F G H I J K L M N O P Q R S T U V W X Y Z

Balance And Composure - Tiny Raindrop chords

Highlighted       Show chord diagrams
-------------------------------------------------------------------------------
                             TINY RAINDROP - Balance & Composure
-------------------------------------------------------------------------------
Tabbed by: julesofsuburbia
E-mail: julesofsuburbia@yahoo.com

this version is super basic.

Tuning: EADGBe




(Play D like this: x5403x)

C                                      D
            I'll take you on a drive
                                    C
Like gardens filled with mirrors
                               D
Lay back eyes open wide
                                C                 CC CC CC
Through alleys we're disappearing

                           D
Come close, stay far
                       C
I'll be your tiny raindrop
                 D
I fall down now

You left me feeling shameful

e|----------------------------------------------|
B|----------------------------------------------|
G|----4----0-4h5p4--0-----3-0-------------------|
D|--2-------------------------------------------|        x4
A|-3----3-0--------0-0--2-----------------------|
E|---------------------0------------------------|
                                                                 Em7
Even if I could I would never let you know
C                                                Em7
So come with me I'll buy you a raincoat
C                                           G
Stay with me I'm sick of this shameful
C                                          Em7
Head of mine I'm lost in its tangles
  A                                       Em7
I need you on my garments

C                            D
Come at me horrid eyes
                             C
That seep into my system
                            D
Push all intent on fire
                                           CC CC CC
The things we think we're missing

                     D                            C
Cause it's all fine; a pillow and a blanket
                              D
Take your precious time, staring at the ceiling

e|----------------------------------------------|
B|----------------------------------------------|
G|----4----0-4h5p4--0-----3-0-------------------|
D|--2-------------------------------------------|        x4
A|-3----3-0--------0-0--2-----------------------|
E|---------------------0------------------------|
                                                            Em7
Even if I could I would never let you go,

C                                                Em7
So come with me I'll buy you a raincoat
C                                           G
Stay with me I'm sick of this shameful
C                                          Em7
Head of mine I'm lost in its tangles
  A                                       Em7
I need you on my garments


C                                                Em7
So come with me I'll buy you a raincoat
C                                           G
Stay with me I'm sick of this shameful
C                                          Em7
Head of mine I'm lost in its tangles
  A                                       Em7
I need you on my garments

OUTRO

Em7

e|-----------------------------------------------------------------------------|
B|--5-3-0--5-3-0--5-3-0--5-3-0-------------------------------------------------|
G|-----------------------------0--4b-0-----------------------------------------|
D|-----------------------------------------------------------------------------|
A|-----------------------------------------------------------------------------|
E|-----------------------------------------------------------------------------|
Tap to rate this tab
# A B C D E F G H I J K L M N O P Q R S T U V W X Y Z