Song name
# A B C D E F G H I J K L M N O P Q R S T U V W X Y Z

Balance And Composure - Notice Me tab

-------------------------------------------------------------------------------
                             Notice Me - Balance and Composure
-------------------------------------------------------------------------------
Tabbed by:rthryhorysak

Tuning: Standard E A D G B e
Guitar 1
  e||-------------------------------------------------|
  B||-------------------------------------------------|
  G||-----0-----0-----0-----0-----0-----0-----0-----0-|
  D||-------------------------------------------------|  x2
  A||---6-----3-----6-----3-----6-----3-----6-----3---|
  E||-4-----1-----4-----1-----4-----1-----4-----1-----|
Guitar 2 on 2nd time
  e||-----------------------------------------------------------------------------------------|
  B||----11----11----11----11----9----9----9----9----11----11----11----11----9----9----9----9-|
  G||-12----12----12----12----12---12---12---12---12----12----12----12----12---12---12---12---|
  D||-----------------------------------------------------------------------------------------|
  A||-----------------------------------------------------------------------------------------|
  E||-----------------------------------------------------------------------------------------|
Chorus
  e||---------------------------------------------------------------------|
  B||---------------------------------------------------------------------|
  G||-------------5--5-5--5-5-5-5-5---------------5--5-5--5-5-5-5-5-3-3---|
  D||-6-6-6--3-3--5--5-5--5-5-5-5-5-3/6-6-6--3-3--5--5-5--5-5-5-5-5-3-3---|
  A||-6-6-6--3-3--3--3-3--3-3-3-3-3-3/6-6-6--3-3--3--3-3--3-3-3-3-3-1-1---|
  E||-4-4-4--1-1--------------------1/4-4-4--1-1--------------------------|
Guitar 1
  e||--------------------------------------------------|
  B||--------------------------------------------------|
  G||-----0-----0-----0-----0-----0-----0-----0------0-|
  D||--------------------------------------------------| x4
  A||---6-----3-----6-----3-----6-----3-----10-----13--|
  E||-4-----1-----4-----1-----4-----1-----8-----11-----|
Guitar 2 on 3rd time
  e||-----------------------------------------------------------------------------------------|
  B||----11----11----11----11----9----9----9----9----11----11----11----11----9----9----9----9-|
  G||-12----12----12----12----12---12---12---12---12----12----12----12----12---12---12---12---|
  D||-----------------------------------------------------------------------------------------| x2
  A||-----------------------------------------------------------------------------------------|
  E||-----------------------------------------------------------------------------------------|
Chorus
  e||---------------------------------------------------------------------|
  B||---------------------------------------------------------------------|
  G||-------------5--5-5--5-5-5-5-5---------------5--5-5--5-5-5-5-5-3-3---|
  D||-6-6-6--3-3--5--5-5--5-5-5-5-5-3/6-6-6--3-3--5--5-5--5-5-5-5-5-3-3---| x2
  A||-6-6-6--3-3--3--3-3--3-3-3-3-3-3/6-6-6--3-3--3--3-3--3-3-3-3-3-1-1---|
  E||-4-4-4--1-1--------------------1/4-4-4--1-1--------------------------|
Guitar 1
  e||--------------------------------------------------|
  B||--------------------------------------------------|
  G||-----0-----0-----0-----0-----0-----0-----0------0-|
  D||--------------------------------------------------| x5
  A||---6-----3-----6-----3-----6-----3-----10-----13--|
  E||-4-----1-----4-----1-----4-----1-----8-----11-----|
Guitar 2 on 3nd time stop for 5th time
  e||-----------------------------------------------------------------------------------------|
  B||----11----11----11----11----9----9----9----9----11----11----11----11----9----9----9----9-|
  G||-12----12----12----12----12---12---12---12---12----12----12----12----12---12---12---12---|
  D||-----------------------------------------------------------------------------------------| x2
  A||-----------------------------------------------------------------------------------------|
  E||-----------------------------------------------------------------------------------------|
Chorus
  e||---------------------------------------------------------------------|
  B||---------------------------------------------------------------------|
  G||-------------5--5-5--5-5-5-5-5---------------5--5-5--5-5-5-5-5-3-3---|
  D||-6-6-6--3-3--5--5-5--5-5-5-5-5-3/6-6-6--3-3--5--5-5--5-5-5-5-5-3-3---| x4
  A||-6-6-6--3-3--3--3-3--3-3-3-3-3-3/6-6-6--3-3--3--3-3--3-3-3-3-3-1-1---|
  E||-4-4-4--1-1--------------------1/4-4-4--1-1--------------------------|
Chrous Guitar 2 on 3rd time
  e||-------4-3--3-3-3-3-3-3-3-3-3-|
  B||-----4------------------------|
  G||-3----------------------------|
  D||------------------------------| X4
  A||------------------------------|
  E||------------------------------|
Ending
 e||--------------------------------------------------------------------------------------------------|
 B||--------------------------------------------------------------------------------------------------|
 G||--------------------------------------------------------------------------------------------------|
 D||----10----8-----5-----5-----10----8-----5----5------10------8-----5-----5------10-----8-----5-3-3-|
 A||-10-----8-----6-----3----10-----8-----6----3-----10-------8-----6-----3-----10------8-----6---3-3-|
 E||--8-----6-----4-----1-----8-----6-----4----1------8-------6-----4-----1-----8-------6-----4---1-1-|

 e||---------------------------------------------------------------|
 B||---------------------------------------------------------------|
 G||---------------------------------------------------------------|
 D||-10-10---8-8---5-5---3-3---10-10---8-8---5-5---3-3---3-3---3-3-|
 A||-10-10---8-8---6-6---3-3---10-10---8-8---6-6---3-3---3-3---3-3-|
 E||--8--8---6-6---4-4---1-1----8--8---6-6---4-4---1-1---1-1---1-1-|
Tap to rate this tab
 
# A B C D E F G H I J K L M N O P Q R S T U V W X Y Z