Song name
# A B C D E F G H I J K L M N O P Q R S T U V W X Y Z

Balance And Composure - Reflection tab

--------------------------------------------------------------------------
                    Reflection - Balance and Composure
--------------------------------------------------------------------------
Tabbed by: Brad Spring
E-mail:bradrocks30@gmail.com

Tuning: Drop D

Intro:
e|-------------------------------------------------------------------------|
B|-------------------------------------------------------------------------|
G|------------------------------------------------------------------------|
D|----4/7---7/9---9h11---11b-p9--------------------------------------------|
A|-----------------------------9------------------------------------------|
D|--00----0-----0------0---------------------------------------------------|

e|-------------------------------------------------------------------------|
B|-------------------------------------------------------------------------|
G|------------------------------------------------------------------------|
D|----4/7---7/9---9h11-------------11--------------------------------------|
A|------------------------14-11-14-----------------------------------------|
D|--00----0-----0------0---------------------------------------------------|

Verse:
e|-----------------------------------------------------------------------|
B|-----------------------------------------------------------------------|
G|-----------------------------------------------------------------------|
D|--0--4--0--9-----------------------------------------------------------|
A|--0--4--0--9-----------------------------------------------------------|
D|--0--4--0--9-----------------------------------------------------------|

Pre-Chorus:
e|--------------------------------|
B|--------------------------------|
G|--------------------------------|
D|11--11--11----------------------|
A|-7---9---9----------------------|
D|-7---9---0----------------------|

Chorus:
e|-------------------------------------------------------------------------|
B|-------------------------------------------------------------------------|
G|---------4--2------------------------------------------------------------|
D|-4---0---4--2------------------------------------------------------------|
A|-4---0---2--0-----------------------------------------------------------|
D|-4---0-------------------------------------------------------------------|

Outro:
e|-------------------------------------------------------------------------|
B|-------------------------------------------------------------------------|
G|-------------------------------------------------------------------------|
D|----0~-------------------------------------------------------------------|
A|----0~------------------------------------------------------------------|
D|----0~-------------------------------------------------------------------|
Tap to rate this tab
 
# A B C D E F G H I J K L M N O P Q R S T U V W X Y Z