Song name
# A B C D E F G H I J K L M N O P Q R S T U V W X Y Z

Balance Of Power - Shelter Me tab

Song:Shelter Me	
  Band:Balance Of Power
  CD:
  Copyright:
  Tabbed by Ed Morones
   -Play tab in sequence unless otherwise noted-
    TUNING:Drop-D
    http://www.balance-of-power.com/
  INTRO:Piano 
   RIFF 1
  e-----------------------------------------------------------------|
  B-----------------------------------------------------------------|
  G-----------------------------------------------------------------|
  D-----16----16----16-16----15----15----15-15----14----14----14-14-|
  A-----16----16----16-16----15----15----15-15----14----14----14-14-|
  D--16----16----16----18-15----15----15----17-14----14----14----16-|


  e-----------------------|Play 2x's
  B-----------------------|2nd time gtr plays Riff 2
  G-----------------------|
  D-----16----16-14-13-11-|
  A-----16----16-14-13-11-|
  D--13----13-------------|

  
    RIFF 2 play 1 time with intro
  e----------------------------------------------------------|
  B----------------------------------------------------------|
  G------------------------------------------sl.-------------|
  D--sl.--11~~~11~~~9p8-9~~~9-8-6-8----6-a.h./11~~~9p8-9~~~--|
  A--/9~~~--------------------------9~~--8-------------------|
  D----------------------------------------------------------|

   Band enters
   RIFF 3         RIFF 4(piano) play with RIFF 3 2x's
  e-------------|---------------------------------------------------|
  B-------------|---------------------------------------------------|
  G-------------|---------------------------------------------------|
  D--4-4-4~~~~~~|------------16----------16----------16----------16-|
  A--4-4-4~~~~~~|------16----------16----------16----------16-------|
  D--4-4-4~~~~~~|---16----16----15----15----14----14----13----13----|
   
   
    RIFF 5
  e----------------------------------------------------------------|
  B----------------------------------------------------------------|
  G----------------------------------------------------------------|
  D--5-4-2-4-2-4-2-4-2-4--2-4-2-4-2-4-2-4--2-4-2-4-2-4-2-4-2-4-2-4-|
  A--5-4-2-4-2-4-2-4-2-4--2-4-2-4-2-4-2-4--2-4-2-4-2-4-2-4-2-4-2-4-|
  D--5-4-2-4-2-4-2-4-2-4--2-4-2-4-2-4-2-4--2-4-2-4-2-4-2-4-2-4-2-4-|



 






  e-----------------|
  B-----------------|
  G-----------p.m...|
  D--2-4-2-4--5-4-2-|
  A--2-4-2-4--5-4-2-|
  D--2-4-2-4--5-4-2-|


    RIFF 6 play 4x's 3rd and 4th time with FILL 1
  e----------------------|
  B----------------------|
  G------------------a.h.|
  D--2-4-2-4-2-4-2-4-5~~~|
  A--2-4-2-4-2-4-2-4-----|
  D--2-4-2-4-2-4-2-4-----|


   FILL 1
  e-------------7-9----10-9-----------------7-9~~~~~~|
  B------7-9-10-----10------10-9-----7-9-10----------|
  G--7-9-------------------------7-9-----------------|
  D--------------------------------------------------|
  A--------------------------------------------------|
  D--------------------------------------------------|
  Now  VERSE 1-play RIFF 5 then RIFF 6
       PRE-CHORUS play RIFF 1  2x's
   CHORUS:RIFF 7
  e-------------------------------------------------------------------|
  B-------------------------------------------------------------------|
  G-------------------------------------------------------------------|
  D--4--2--9--2--4--2--9--2-2-2--4--2--9--2-2-2-2-4--2--9--5--4--2--4-|
  A--4--2--9--2--4--2--9--2-2-2--4--2--9--2-2-2-2-4--2--9--5--4--2--4-|
  D--4--2--9--2--4--2--9--2-2-2--4--2--9--2-2-2-2-4--2--9--5--4--2--4-|



  e-----------|
  B-----------|
  G-----------|
  D--5--4--2--|
  A--5--4--2--|
  D--5--4--2--|

   Play RIFF 6 4x's then VERSE 2 play RIFF 5 then RIFF 6
   PRE-CHORUS play RIFF 1 2x's then CHORUS play RIFF 7
   For the SOLO section play RIFF 6 8x's then play CHORUS RIFF 7
  










  
  Play RIFF 6 2x's 1st time use alt fill 2 2nd time use alt fill 3
    fill 2       fill 3
  e------------|---------------|
  B------------|---------------|
  G------------|---------------|
  D--5-5--4-4--|-5-5-5--4-4-4--|
  A--5-5--4-4--|-5-5-5--4-4-4--|
  D------------|---------------|

   Play RIFF 6 4x's with fill 1
   play RIFF 6 2x's 1st time with alt fill 2 2nd time end song.
    ENDING:
  e--------|
  B--------|
  G--------|
  D--5-5-4-|
  A--5-5-4-|
  D--------|

   Email any q's or coms to Ed
   5150rocker@sbcglobal.net
Tap to rate this tab
 
# A B C D E F G H I J K L M N O P Q R S T U V W X Y Z