Song name
# A B C D E F G H I J K L M N O P Q R S T U V W X Y Z

Ball Park Music - All I Want Is You tab

-------------------------------------------------------------------------------
			     All I want is you - Ball Park Music
-------------------------------------------------------------------------------
Tabbed by: JT
Email:jtodat@hotmail.com

Probably my favourite song of 2011 



INTRO/VERSE/CHORUS  
    Em             A             C                G
e|----------------------------------------------333------------------------|
B|-----8------------------------------1p0---000-000------------------------|
G|----9-9-----------6---------------0----0--000-000------------- ----------|
D|---9---9-9-------7----7--7-------2--------222-000------------------------|
A|--7-----7-------7-------7-------3---------333-222------------------------|
E|---------------5------------------------------333------------------------|
        Em       A      C      G
e|------------------------333333-----------------------------------------|
B|---888888--------111111-000000-----------------------------------------|
G|---999999-666666-000000-000000-----------------------------------------|
D|---999999-777777-222222-000000-----------------------------------------|
A|---777777-777777-333333-222222-----------------------------------------|
E|----------555555--------333333-----------------------------------------|


this is the whole song minus the solo
enjoy

************************************

| /   slide up
| \   slide down
| h   hammer-on
| p   pull-off
| ~   vibrato
| +   harmonic
| x   Mute note
| b   Bend
| pb  Pre-bend
| br  Bend release
| pbr Pre-bend release
| brb Bend release bend

************************************
Tap to rate this tab
 
# A B C D E F G H I J K L M N O P Q R S T U V W X Y Z