Ball Park Music - Error Playin chords

Highlighted       Show chord diagrams
Song: Error Playin’ – Ball Park Music
Tabbed by: Pinxty
Email: Pinxty@Gmail.com

This is my first Tab so please go easy on me :) Please email me if you have any 
questions or can correct an
error!

Standard Tuning - EADGBe

[Intro]  A F#m C#m E

     A                  F#m                 C#m         E
e|-------x-x-x-x--|--------------|------4--|----------------|
B|-------4-4-4-4--|--------------|------5--|----------------|
G|-------5-5-5-5--|--------4/6---|------6--|----------------| X 2
D|-------6-6-6-6--|--------------|------6--|--9-9-------9p7-|
A|-------x-x-x-x--|--------------|--4-4-4--|--7-7-7h9p7-----|
E|--4-4--4-4-4-4--|--2-x-2-------|------x--|----------------|


[Verse 1] A F#m C#m E

A     F#m   C#m            E
Oh girl,    Your skin is all peachy
A     F#m   C#m            E
And you take me by surprise
A     F#m   C#m            E
In a lock of your golden hair
A     F#m   C#m            E
To the tips of your daddy long legs


[Chorus] Bm F#m D A

Bm   F#m            D      A
You beat me in to sorry submission
Bm   F#m    D      A
Certified, I’m total crazy
Bm    F#m        D            A
As my eyes roll back into my yard
Bm                                   F#m              D      A
And I deliver little shivers with the tips of my fingers


[Verse 2] A F#m C#m E

A     F#m   C#m              E
Oh girl, we’re swimming in water
A     F#m   C#m               E
And your head, is the perfect shape
A     F#m   C#m                   E
We dine      on the shore of the earthquake
A           F#m        C#m      E
The parsnip looks like a rat’s tail


[Solo]

e|-----------16-14-------------------|
B|--14-12-14-------12b(14)-12p10-----|
G|-------------------------------13--| X 4
D|-----------------------------------|
A|-----------------------------------|
E|-----------------------------------|


[Chorus] Bm F#m D A

Bm   F#m            D      A
You beat me in to sorry submission
Bm   F#m    D      A
Certified, I’m total crazy
Bm    F#m        D            A
As my eyes roll back into my yard
Bm                                   F#m              D      A
And I deliver little shivers with the tips of my fingers


[Instrumental] A F#m D A
Tap to rate this tab
 
# A B C D E F G H I J K L M N O P Q R S T U V W X Y Z