Song name
# A B C D E F G H I J K L M N O P Q R S T U V W X Y Z

Ballyhoo - Caligirl tab

So i was going through the internet and i was like hey maybe there r some ballyhoo! 
tabs... but there wernt any... so i decided to take my time and tab out their most famous 
Cali Girl.

If you have Any question or comments Email me at Hummer53@aol.com


Verse: G# Fm G
Pre Chorus-C# D#
Chorus:G# Fm G# G


e----------------------------------------------------------------------|
b--------------------6b-4-2-4-1-------------------------------4-4-6b-4-|
g----------------3-5-----------5-5-5-5-3-3-3-3--3--------3 -5--5-------|
d---------3-3-5-6------------------------------6-5-----3-6-------------|
a-----3-6--6--------------------------------------6---6----------------|
E-4-6------------------------------------------------------------------|


e----------------------------------------------------------------------|
b2-4-1-----------------------------------------------------------------|
g-----5-5-5-5-3-3-3-3---3----------------------------------------------|
d---------------------6---5--------------------------------------------|
a----------------------------------------------------------------------|
E----------------------------------------------------------------------|
Tap to rate this tab
# A B C D E F G H I J K L M N O P Q R S T U V W X Y Z