Song name
# A B C D E F G H I J K L M N O P Q R S T U V W X Y Z

Ballyhoo - The Fool tab

e--------------------------------|
B--------------------------------|
G--------------------------------|
D------------8-10-10b-10-8-8h10--|
A-8/10--8-10---------------------|
E--------------------------------|

e---------------------------------|
B---------------------------------|
G---------------------------------|
D-8-10-8-8-7----------------------|
A------------8-10-8---------------|
E---------------------------------|

e--------------------------------|
B--------------------------------|
G-----------------10----10-10h12-|
D------8-10-10/12----12----------|
A-8-10---------------------------|
E--------------------------------|

e--------------------------------|
B----------13-13b-11-13-11-------|
G-15-12-15-----------------12-12-|
D--------------------------------|
A--------------------------------|
E--------------------------------|

e--------------------------------|
B-------11-11-10----10-13--------|
G-10-12----------10--------------|
D--------------------------------|
A--------------------------------|
E--------------------------------|

e--------------------------------|
B--------------------------------|
G--------------------------------|
D-8-7----------------------------|
A-----8--------------------------|
E--------------------------------|

e--------------------------------|
B--------------------------------|
G-----------------10----10-10h12-|
D------8-10-10/12----12----------|
A-8-10---------------------------|
E--------------------------------|
Tap to rate this tab
# A B C D E F G H I J K L M N O P Q R S T U V W X Y Z