Song name
# A B C D E F G H I J K L M N O P Q R S T U V W X Y Z

Ballyhoo - Phantoms tab

First tab ever, so let me know what you think, any suggestions are welcomed.I
noticed there are hardly any Ballyhoo! tabs and they are an awesome band so here
goes. BTW I was too lazy to do all the notes or strumming(I'll try to udpdate
later), so listen to the song to get the general idea, also try starting with up
strokes, it really does make a difference.Haven't figured out the solo
yet.Overall pretty easy song, I only put intermediate because i know not everyone
can do a finger bar ;-).

Intro/Verse:
e----3-X-3-X-3-----1-1--1111-----5-X-5-X-5---6-6666-----------------|
B----3-X-3-X-3-----1-1--1111-----6-X-6-X-6---8-7777-----------------|
G----4-X-4-X-4-----2-2--2222-----7-X-7-X-7---8-8888-----------------|
D----5-X-5-X-4-----3-3--3333-----7-X-7-X-7---8-8888-----------------|
A----5-X-5-X-5-----3-3--3333-----5-X-5-X-5---6-6666-----------------|
E----3-X-3-X-3-----1-1--1111-----5-X-5-X-5---6-6666-----------------|
                                         and this is what you get...

Pre-Chorus:
e-------------------------------------------------------------------------|
B-------------------------------------------------------------------------|
G-777777777777----------------555555555555--------------------------------|
D-777777777777--333333333333--555555555555--555555555555--33333-----------|
A-555555555555--333333333333--333333333333--555555555555--33333-----------|
E---------------111111111111----------------333333333333--11111-----------|
                                          Why can't we solve this now?...

Chorus:
e---------------------------------------------------------------------------|
B---------------------------------------------------------------------------|
G-8-8-888--555555-------------------------------888888888888----------------|
D-8-8-888--555555--55555555--3333- <--3 times --888888888888--3333333333333-|
A-6-6-666--333333--55555555--3333---------------666666666666--3333333333333-|
E------------------33333333--1111-----------------------------1111111111111-|
There's no purpose for......                           your phantom hell..

*Repeat as needed*
Tap to rate this tab
 
# A B C D E F G H I J K L M N O P Q R S T U V W X Y Z