Song name
# A B C D E F G H I J K L M N O P Q R S T U V W X Y Z

Ballyhoo - Somewhere Tropical tab

e|------------------------------------------------------------------------|
B|------------------------------------------------------------------------|
G|-16-14--14-16-14--------------------------------------------------------|
D|------16---------16-14h16p14-12-14-12---------------12--12--12-14-14/16-|
A|--------------------------------------14-12-14-12h14--14--14------------|
E|------------------------------------------------------------------------|

e|-----------------------------------------------------------------------|
B|-----------------------------------------------------------------------|
G|-------------------/16-14----------------------------------------------|
D|-14-12-14-12-------------16-14-14h16-14-12---------12--12--12-14-14/16-|
A|------------14-12--------------------------14-12h14--14--14------------|
E|-----------------------------------------------------------------------|

e|------------------15p14p12---------------------------------------------|
B|--------------------------15p14p12-------------------------------------|
G|----------------------------------14-12-1414-12-11-12-11---11h12-11----|
D|-14-12-14-12--12----------------------------------------14---------14--|
A|------------14---------------------------------------------------------|
E|-----------------------------------------------------------------------|

e|-----------------------------------------------------------|
B|-------------------------------------12-12/14-14/15-15\14--|
G|------------12--12--11-11/12-12/14-14----------------------|
D|-12-12-11-11--11-------------------------------------------|
A|-----------------------------------------------------------|
E|-----------------------------------------------------------|
Tap to rate this tab
 
# A B C D E F G H I J K L M N O P Q R S T U V W X Y Z