Song name
# A B C D E F G H I J K L M N O P Q R S T U V W X Y Z

Ballyhoo - Everything tab

INTRO/INTERLUDE (distorted, palm mute on and off)
Play pretty fast, repeat 3x in the intro and 4x for the interludes
E|-------------------------------|
B|-------------------------------|
G|-------------------------------|
D|-------------------------------|
A|-2-0-2-0-----------------------|
E|----------2-0-2-0-3-2-3-2-0--0-|

VERSES (clean)
Let first strum ring, then reggae-style upstrokes with quick chord change
E|-2-2-2-2-2-2-2-2-2-2-|
B|-3-3-3-3-3-2-2-2-2-2-|
G|-4-4-4-4-4-3-3-3-3-3-|
D|-4-4-4-4-4-4-4-4-4-4-|   on 4th time, distort second chord & buildup mute to chorus
A|-2---------4-4-4-4-4-|
E|-----------2---------|
   F#        Bm

CHORUS (distorted)
Stress the lower notes, blend last chord into the first as chorus continues, strum G 
then F# at end
E|-3-3--5-5--2-2--2-2-2-2-|
B|-3-3--5-5--2-2--3-3-3-3-|
G|-4-4--7-7--3-3--4-4-4-4-|
D|-5-5--7-7--4-4--4-4-4-4-|
A|-5-5--5-5--4-4--2-2-2-2-|
E|-3-3--5-5--2-2----------|
   G    D5    F#   Bm

SOLO (backing track is intro/interlude)
E|------------------------------------------------14-----------------------15-|
B|-7-8-7-------7-8-8/10-8-7--15-14-12-14-15-14-12-----15-14-12-14-15-14-12----|
G|-------7---7----------------------------------------------------------------|
D|---------9------------------------------------------------------------------|
A|----------------------------------------------------------------------------|
E|----------------------------------------------------------------------------|

E|-------------------------5---------------------------------------|
B|-----7-8-10-8-7-8-10-8-7-7------7h8-8/10-8-7-8-1010101010101010b-|
G|---7------------------------4h6----------------------------------|
D|-9---------------------------------------------------------------|
A|-----------------------------------------------------------------|
E|-----------------------------------------------------------------|

POST-SOLO (starts distorted, gets clean)
simply strum verse chords and let ring, then some notes as below, then more strums; at 
end build-up to verse
E|-2-2-----2-2-----2-5-2---2-2-----|
B|-3---3---2---2---3-----3-2---2---|
G|-4-----4-3-----3-4-------3-----3-|
D|-4-------4-------4-------4-------|
A|-2-------4-------2-------4-------|
E|---------2---------------2-------|
   Bm	   F#      Bm      F#

ENDING (distorted, stress lower notes, rhythm not shown)
E|-2--2--3--2-0-|
B|-2--2--3--2-0-|
G|-4--3--4--3-2-|
D|-4--4--5--4-2-|
A|-2--4--5--4-0-|
E|-2--2--3--2-0-|

ORDER:  Intro, Verse, Chorus, Interlude, Verse, Chorus, Solo/Interlude, Post-Solo, 
Verse, Chorus, Ending
Tap to rate this tab
# A B C D E F G H I J K L M N O P Q R S T U V W X Y Z