Song name
# A B C D E F G H I J K L M N O P Q R S T U V W X Y Z

Ballyhoo - Evil Penguin tab

*note this song is likely really played in a different tuning, but that only affects a couple 
small parts of the song; this sounds fine for all those who hate changing up tuning every song*

VERSE (single notes distorted, chords not with reggae upstrokes)
Second part starts with "are we on the front line"/"I know that so many" in each verse
E|-----------55-5-5-5-5-5-5-55-5-5-5-|-33-3-3-3-3-3-3-55-5-5-5-5-5-5-|
B|-----------66-6-6-6-6-6-6-55-5-5-5-|-33-3-3-3-3-3-3-55-5-5-5-5-5-5-|
G|-----------77-7-7-7-7-7-7-66-6-6-6-|-33-3-3-3-3-3-3-66-6-6-6-6-6-6-|
D|------3----77-7-7-7-7-7-7-77-7-7-7-|-55-5-5-5-5-5-5-77-7-7-7-7-7-7-|-right before chorus
A|---------3-55-5-5-5-5-5-5-77-7-7-7-|-55-5-5-5-5-5-5-77-7-7-7-7-7-7-| distort A, palm mute-
E|-5-4----------------------55-5-5-5-|-33-3-3-3-3-3-3-55-5-5-5-5-5-5-|
             Dm             A          F#m            A

CHORUS (distorted, rhythm not shown easy to hear, second part after main chorus the first time)

E|-----------------|-----|
B|-----------------|-----|
G|---10---7---10---|-----|
D|-8-10-7-7-8-10-7-|-0-3-|
A|-8-8--7-5-8-8--7-|-0-3-|
E|-6----5---6----5-|---1-|
power chords of Bf5/F5/A5/D5
second part bridges to chorus with G#5/F5 (this would be easier if guitar was tuned down)

BRIDGE (distortion, repeats first part a bunch, parenthesis instead of boxes last 
time, then second part)

E|-------------------------------------|--------------------|
B|-------------------------(5)-(4)-(5)-|--------------------|
G|-------------------2-2-2-[5]-[4]-[5]-|----------555-------|-then piano and "break
D|-------------2-2-2-------------------|-000-3333-555-555-7-| away..break away…"
A|-------3-3-3-------------------------|-000-3333-333-555-7-|
E|-5-5-5-------------------------------|-----1111-333-333-5-|
                                         G#5 F5   G4  G5  A5 (like end chorus 
would be easier if guitar tuned down)
END (distortion, same as first part of bridge)

ORDER:  Intro (piano), Verse, Chorus (both parts), Verse, Chorus, Bridge, Chorus, End
Tap to rate this tab
# A B C D E F G H I J K L M N O P Q R S T U V W X Y Z