Song name
# A B C D E F G H I J K L M N O P Q R S T U V W X Y Z

Ballyhoo - Say Im Wrong tab

INTRO

E|--12--12-12-12--14-14--12-12--|
B|--12--12-12-12--12-12--12-12--|
G|--13--13-13-13--13-13--13-13--|
D|------------------------------|
A|------------------------------|
E|------------------------------|

E|--11--11-11-11--14-14--11-11--|
B|--12--12-12-12--12-12--12-12--|
G|--13--13-13-13--13-13--13-13--|
D|------------------------------|
A|------------------------------|
E|------------------------------|

E|--9---9--9--9---12-12--9--9---|
B|--10--10-10-10--10-10--10-10--|
G|--11--11-11-11--11-11--11-11--|
D|------------------------------|
A|------------------------------|
E|------------------------------|

E|--12--12-12-12--14-14--12-12--|
B|--14--14-14-14--14-14--14-14--|
G|--14--14-14-14--14-14--14-14--|
D|------------------------------|
A|------------------------------|
E|------------------------------|


VERSE 1

             E
I dont wanna wonder if you love me,

             G#m7
I just wanna know this much is true.

         F#m7
Ive been searching for a purpose,

        A
But Ive found someone in you.



            E
And now Ive got some questions baby.

     G#m7
And I cant stop the feelings I have.

     F#m7
Am I headed for some trouble?

        A
In this wind in our train tracks.


CHORUS


E               G#m7
Way way way too long.

         F#m7
Ive been trying to get through to you.

A
Tell me what should I do.

E                G#m7
Say, say, say Im wrong.

   F#m7
If standing up for this is wrong,

     A
Then I dont wanna be right, yeah.


VERSE 2


E
Stayin up all night with you,

     G#m7
Is a gift that I wont forget.

F#m7
Make-out sessions in the dark,

         A
Like the times when we first met.

E
Making love on your bedroom floor,

       G#m7
In the night while your parents slept.

F#m7
We would laugh and whisper,

          A
Until the morning sunlight crept in.


MIDDLE 8


G#m7                         C#m
   We dont talk much like we used to do.

      A                      G#m7       B
And I miss our silly conversations.

G#m7                            C#m
   Please tell me should I stop loving you?

       A                              B
Cause I dont think I could even if I tried.


Woah-oah.


CHORUS

E               G#m7
Way way way too long.

         F#m7
Ive been trying to get through to you.

A
Tell me what should I do.

E                G#m7
Say, say, say Im wrong.

   F#m7
If standing up for this is wrong,

     A
Then I dont wanna be right, yeah.


SOLO


E|-------------------------------------------------------|
B|---------9-10-12~----10-9-7~----12h14-12-10-9--10-9-7~-|
G|--/9---9-----------------------------------------------|
D|-------------------------------------------------------|
A|-------------------------------------------------------|
E|-------------------------------------------------------|

E|-------------------------------------------------------|
B|--7h9-5--------------------------------12--12--12~-----|
G|--------6-6~--------------9-11-9-11/13-----------------|
D|---------------------9-11------------------------------|
A|----------------9-11-----------------------------------|
E|-------------------------------------------------------|

E|----14--14h16-14--12--14-12-11~---11--12--14-14~--14-12-|
B|--------------------------------------------------------|
G|--------------------------------------------------------|
D|--------------------------------------------------------|
A|--------------------------------------------------------|
E|--------------------------------------------------------|

E|-11-11h12p11----11-------------------------------------|
B|-------------14----14-12--10-9--7----------------------|
G|----------------------------------6~--------------9-11-|
D|---------------------------------------------9-11------|
A|----------------------------------------9-11-----------|
E|-------------------------------------------------------|

E|-----------||
B|--9-12~----||
G|-----------||
D|-----------||
A|-----------||
E|-----------||


MIDDLE 8


G#m7                         C#m
   We dont talk much like we used to do.

      A                      G#m7       B
And I miss our silly conversations.

G#m7                            C#m
   Please tell me should I stop loving you?

      A                              B
Cause I dont think I could even if I tried.


Woah-oah.


CHORUS


E               G#m7
Way way way too long.

         F#m7
Ive been trying to get through to you.

A
Tell me what should I do.

E                G#m7
Say, say, say Im wrong.

   F#m7
If standing up for this is wrong,

     A
Then I dont wanna be right, yeah.



E               G#m7
Way way way too long.

         F#m7
Ive been trying to get through to you.

A
Tell me what should I do.

E                G#m7
Say, say, say Im wrong.

   F#m7
If standing up for this is wrong,

     A
Then I dont wanna be right, yeah.


OUTRO


E|--12--12-12-12--14-14--12-12--|
B|--12--12-12-12--12-12--12-12--|
G|--13--13-13-13--13-13--13-13--|
D|------------------------------|
A|------------------------------|
E|------------------------------|

E|--11--11-11-11--14-14--11-11--|
B|--12--12-12-12--12-12--12-12--|
G|--13--13-13-13--13-13--13-13--|
D|------------------------------|
A|------------------------------|
E|------------------------------|

E|--9---9--9--9---12-12--9--9---|
B|--10--10-10-10--10-10--10-10--|
G|--11--11-11-11--11-11--11-11--|
D|------------------------------|
A|------------------------------|
E|------------------------------|

E|--12--12-12-12--14-14--12-12--|
B|--14--14-14-14--14-14--14-14--|
G|--14--14-14-14--14-14--14-14--|
D|------------------------------|
A|------------------------------|
E|------------------------------|

E|--12--12-12-12--14-14--12-12--|
B|--12--12-12-12--12-12--12-12--|
G|--13--13-13-13--13-13--13-13--|
D|------------------------------|
A|------------------------------|
E|------------------------------|

E|--11--11-11-11--14-14--11-11--|
B|--12--12-12-12--12-12--12-12--|
G|--13--13-13-13--13-13--13-13--|
D|------------------------------|
A|------------------------------|
E|------------------------------|

E|--9---9--9--9---12-12--9--9---|
B|--10--10-10-10--10-10--10-10--|
G|--11--11-11-11--11-11--11-11--|
D|------------------------------|
A|------------------------------|
E|------------------------------|

E|--12~---14~---16~----||
B|--14~---14~---12~----||
G|--14~---14~---13~----||
D|---------------------||
A|---------------------||
E|---------------------||
Tap to rate this tab
 
# A B C D E F G H I J K L M N O P Q R S T U V W X Y Z