Song name
# A B C D E F G H I J K L M N O P Q R S T U V W X Y Z

Ballyhoo - Antisocial tab

                             Antisocial solo - Ballyhoo!
Tuning: standard


PART 1 x2
e|222222223---2----0000000021------2--------------------------------------------|
B|----------2------------------211----------------------------------------------|
G|------------------------------------------------------------------------------|
D|------------------------------------------------------------------------------|
A|------------------------------------------------------------------------------|
E|------------------------------------------------------------------------------|

PART 2 x2
e|222222223---1-------------554433221100---------------------------------------|
B|----------2------------------------------------------------------------------|
G|-----------------------------------------------------------------------------|
D|-----------------------------------------------------------------------------|
A|-----------------------------------------------------------------------------|
E|-----------------------------------------------------------------------------|
Tap to rate this tab
# A B C D E F G H I J K L M N O P Q R S T U V W X Y Z