Song name
# A B C D E F G H I J K L M N O P Q R S T U V W X Y Z

Ballyhoo - Last Night tab

_____________________________________________________________________________
                            Ballyhoo!: Last Night
_____________________________________________________________________________
                              Intro: Palm Muted
--------------------------------------------------------------------------|
--------------------------------------------------------------------------|
----------9-------------------------------------7-------------------------|
------9-----9---9------------7--------------7-----7---7-------------------| x2
--7-7---7-----7----------7-----7---7----5-5---5-----5----------5--------9-|
---------------------5-5---5-----5-------------------------3-3------7-7---|
                               Intro: Power Chords
--xxxxx---xxxxx---xxxxx---xxx---xxx---------------------------------------|
--xxxxx---xxxxx---xxxxx---xxx---xxx---------------------------------------|
--99999---xxxxx---77777---xxx---xxx---------------------------------------|
--99999---77777---77777---555---999---------------------------------------| x2
--77777---77777---55555---555---999---------------------------------------|
--xxxxx---55555---xxxxx---333---777---------------------------------------|
                                  Verse
--x---5---x---3---7-------------------------------------------------------|
--9---5---7---3---7-------------------------------------------------------|
--9---6---7---4---8-------------------------------------------------------|
--9---7---7---5---9-------------------------------------------------------|
--7---7---5---5---9-------------------------------------------------------|
--x---5---x---3---7-------------------------------------------------------|
                            Pre-Chorus: Palm Muted
--------------------------------------------------------------------------|
--------------------------------------------------------------------------|
----------9-------------------------------------7-------------------------|
------9-----9---9------------7--------------7-----7---7-------------------| x2
--7-7---7-----7----------7-----7---7----5-5---5-----5----------5--------9-|
---------------------5-5---5-----5-------------------------3-3------7-7---|
                             Chorus: Power Chords
--xxxxx---xxxxx---xxxxx---xxx---xxx---------------------------------------|
--xxxxx---xxxxx---xxxxx---xxx---xxx---------------------------------------|
--99999---xxxxx---77777---xxx---xxx---------------------------------------|
--99999---77777---77777---555---999---------------------------------------| x2
--77777---77777---55555---555---999---------------------------------------|
--xxxxx---55555---xxxxx---333---777---------------------------------------|


                              Tabbed by Jack Brown
                                     410
                                  Get Weird
Tap to rate this tab
 
# A B C D E F G H I J K L M N O P Q R S T U V W X Y Z