Song name
# A B C D E F G H I J K L M N O P Q R S T U V W X Y Z

Balmorhea - Remembrance tab

-------------------------------------------------------------------------------
			      Remembrance - Balmorhea
-------------------------------------------------------------------------------

One of my favourite songs of Balmorhea :)

http://balmorheamusic.com/
http://www.myspace.com/balmorhea


Tabbed by: iván
Email: unacajadecerillas@hotmail.com (send questions/comments/corrections!)

Capo on second fret


Tuning: EADGBe (standard) all shapes relative to capo

guitar goes like this:
e|-----------------------------------------------------------------------------------------|
B|------0------0------0------0--------0------0------0------0-------0------0------0------0--|
G|-------4------4------4------4--------4------4------4------4-------4------4------4------4-|
D|----2------2------2------2-------0------0------0------0----------------------------------|
A|---------------------------------------------------------------3------3------3------3----|
E|-----------------------------------------------------------------------------------------|

repeat it again and again and you have it.

Mabye this tab is not totally correct (It's my first tab)
Tap to rate this tab
# A B C D E F G H I J K L M N O P Q R S T U V W X Y Z