Song name
# A B C D E F G H I J K L M N O P Q R S T U V W X Y Z

Balmorhea - Wind And Sea tab

E|-----------------|-----------------|-----------------|-----------|
B|-----------0--3--|-----------0--3--|-----------0--3--|--0--------|
G|--------2--------|--------2--------|--------2--------|-----2-----| 2x
D|-----0-----------|-----0-----------|-----0-----------|-----------|
A|-----------------|-----------------|-----------------|-----------|
E|--3--------------|--3--------------|--3--------------|--------3--|

E|-----------------|
B|--7----5\3-------|
G|-----------------| after ^ is played 2x, this comes in.
D|-----------------|
A|-----------------|
E|-----------------|

E|-----------|
B|-----------|
G|--7--5--4--|
D|-----------|
A|-----------|
E|-----------|
Tap to rate this tab
 
# A B C D E F G H I J K L M N O P Q R S T U V W X Y Z