Balthazar - This Is A Flirt tab

Song: This is a flirt
Artist: Balthazar
Album: This is a flirt - single
Genre: Rock/Alternative

Capo: /
Tuning: E-A-D-G-B-e

Intro

e|------4---------------------------------4----------|
B|--4h6---6---------------------------4h6---6--------|
G|---------------------------------------------------|
D|---------------------------------------------------|
A|---------------------------------------------------|
E|---------------------------------------------------|

This is the riff played troughout the whole song...
    
e|------4---6---6-4------4---6-6-x-4------4---6---6-4------4---6-6-x-4-----|
B|--4h6---6---6------4h6---6----------4h6---6---6------4h6---6-------------|
G|-------------------------------------------------------------------------|
D|-------------------------------------------------------------------------|
A|-------------------------------------------------------------------------|
E|-------------------------------------------------------------------------|


The Chords used in the song:
   Fm  Ab  Bb  Db  Eb  
e|-----------------------|
B|-----------------------|
G|----------3---6---8----|
D|--3---6---3---6---8----|
A|--3---6---1---4---6----|
E|--1---4----------------|



VERSE 1

Fm
Dance, dance,
               Ab
wanna make you my romance
              Db
Iíve got you here in the fog
              Bb          Eb
how 'bout some Hollywood talk
            Fm
yeah baby, bet we do more
               Ab
than all the lovin' next door
            Db
and even more than before
             Bb               Eb
they had them kids on their floor


CHORUS

Fm
Do you wanna love,
             Ab
cause Iím in love with you 
Bb
Do you wanna love,
              Db         Eb
cause I'm in love with you


VERSE

Dance, dance,
how 'bout some love offence
what an awful timing to take
another cigarette break
baby, you know it takes two
to smoke taboo out of you
and steamy windows ain't wrong
to leave your phone number on


     Db              Bb              Fm
You are my Jean Harlow, my Jean Harlow

Tap to rate this tab
 
# A B C D E F G H I J K L M N O P Q R S T U V W X Y Z