Song name
# A B C D E F G H I J K L M N O P Q R S T U V W X Y Z

Balthazar - Morning tab

Title: Morning
Artist: Balthazar
Album: Applause


 Main riff:
|--------------------------------------------------------------------|
|--------------------------------------------------------------------|
|--------------------------------------------------------------------|
|--------------------------------------------------------------------|
|--------------------------------2-3-----2-3-----2-3-----2-3---------|
|--2-----0-2-----0-2-----0-2-------------------------------------(0)-|


 Chorus:
|--------------------------------------------------------------------|
|--------------------------------------------------------------------|
|--------------------------------------------------------------------|
|--2-2-2-2-4-4-4-4-6-----6-6-------2-2-2-2-4-4-4-4-6-----6-6---------|
|--3-3-3-3-5-5-5-5-7-----7-7-------3-3-3-3-5-5-5-5-7-----7-7---------|
|--------------------------------------------------------------------|



That's all. Don't forget to palm mute everything.



NOTE: If you get bored, you can play an F#m- and C-chord in the
verses instead of doing nothing or just doubling the bass riff.
Tap to rate this tab
# A B C D E F G H I J K L M N O P Q R S T U V W X Y Z