Song name
# A B C D E F G H I J K L M N O P Q R S T U V W X Y Z

Balthazar - Hunger At The Door tab

Title: Hunger at the Door
Artist: Balthazar
Album: Applause


Intro/chorus
----------------------------------------------|
----------------------------------------------|
----------------------------------------------|
-----------------------------------8s-11s8----|
--10-7--10-------10----7--10-10-7-------------|
----------------------------------------------|

Verse
----------------------------------------------|
----------------------------------------------|
----------------------------------------------|
----------------------------------------------|
--10-10-10-10-10-10-10-10-10-10-10-10-10-10---|
----------------------------------------------|

Bridge/outro (note: these could be octaves instead of power chords)
----------------------------------------------------|
----------------------------------------------------|
--12-12-7s-12-12-7s-12-12-7s-12-12-7s-13-13-13-13---|
--12-12-7s-12-12-7s-12-12-7s-12-12-7s-13-13-13-13---|
--10-10-5s-10-10-5s-10-10-5s-10-10-5s-11-11-11-11---|
----------------------------------------------------|

----------------------------------------------------|
----------------------------------------------------|
--12-12-7s-12-12-7s-12-12-7s-13-13-13-13-13-13-13---| 12
--12-12-7s-12-12-7s-12-12-7s-13-13-13-13-13-13-13---|
--10-10-5s-10-10-5s-10-10-5s-11-11-11-11-11-11-11---|
----------------------------------------------------|

Solo
----------------------------------------------|
----------------------------------------------|
----------------------------------------------|
----------------------------------------------|
-----15b15-13-12-13----15b15-13-12-13----13---|
----------------------------------------------|

----------------------------------------------|
----------------------------------------------|
----------------------------------------------|
-----------------------------------12----15---|
-----15b15-13-12-13----15b15-13-12------------|
----------------------------------------------|

----------------------------------------------|
----------------------------------------------|
----------------------------------------------|
----------------------------------------------|
-----15b15-13-12-13----15b15-13-12-13----13---|
----------------------------------------------|

----------------------------------------------|
-----------------------------------------15---|
--------------------------------12-15---------|
-----15b15-12----12----15b15-12---------------|
--------------15------------------------------|
----------------------------------------------|

Intro/chorus     x12    *insert an open G string once in awhile
Verse            x4
Intro/chorus     x8
Bridge/outro     x1
Solo             x2     *see intro/chorus
Intro/chorus     x7,5   *7,5 doesn't make sense, but you'll hear what I mean
Bridge/outro     x4

I have no idea what the second guitar does in the bridge and outro,
but here's what I usually play:

----------------------------------|
--15-------8s-9s-10s11s12s13s14---|
--12-x12---5s-6s-7s-8s-9s-10s11---|
----------------------------------|
----------------------------------|
----------------------------------|
Tap to rate this tab
# A B C D E F G H I J K L M N O P Q R S T U V W X Y Z