Song name
# A B C D E F G H I J K L M N O P Q R S T U V W X Y Z

Balzac - Jet Generation tab

this is a song originally by Guitar Wolf, but balzac does this song
in tribute to them...for those of you who don't know Guitar Wolf they're
 the best "jet" rock'n roll band in Japan....

Jet Generation:
tabbed by:Mike Cortez
song by:guitar wolf...

bass intro:
e:---------------------------------------------------|
b:---------------------------------------------------|
g:---------------------------------------------------|
d:---------------------------------------------------|
a:---------------------------------------------------|
e:-11-22-33-44-55-66-77-88-99-10-10-11-11-1212121212-|

verse:1,2,3 go!!!  do this(4x) then this little bit....
e:-----------------------------|-----------------------|---------|
b:-----------------------------|-----------------------|---------|
g:-99999-------77777-----------|-7/-999-7/-999---------|---------|
d:-99999-99999-77777-777777----|-7/-999-7/-999---------|---------|
a:-77777-99999-55555-777777----|-5/-777-5/-777---------|-10-999910
e:-------77777-------555555----|-----------------------|---------|
verse:
e:------------------------------------------------------|
b:------------------------------------------------------|
g:-9999999999--------------7777777777777----------------|
d:-9999999999-999999999999-7777777777777-777777777777777|
a:-7777777777-999999999999-5555555555555-777777777777777|
e:------------777777777777---------------555555555555555|(x4)
Solo:
e:--------------------------------------------------------|
b:--------------------------1212121212-12-12-12-10-12-10v-|
g:-10p12(x3)b12b12b12b12b12-1212121212-12-12-12-10-12-10v-|
d:--------------------------------------------------------|
a:--------------------------------------------------------|
e:--------------------------------------------------------|
outro:                                       then..play this
e:-----------------------------------------|----|
b:-----------------------------------------|----|
g:-9-9-9-9-9-----------7-7-7-7-7-----------|-9:-|
d:-9-9-9-9-9-9-9-9-9-9-7-7-7-7-7-7-7-7-7-7-|-9:-|
s:-7-7-7-7-7-9-9-9-9-9-5-5-5-5-5-7-7-7-7-7-|-7:-|
e:-----------7-7-7-7-7-----------5-5-5-5-5-|----|
that's all i can tab right now....this can work me little mind..
i'm just sixteen....i'm still just a kid inside....heh heh..
god luck okies.......-Mike Cortez
Tap to rate this tab
 
# A B C D E F G H I J K L M N O P Q R S T U V W X Y Z