Song name
# A B C D E F G H I J K L M N O P Q R S T U V W X Y Z

Balzac - Legacy 2 tab

Help us improve GuitareTab! Take a short survey!
Legacy II
byBalzac
tabbed by Mike Cortez
this song is from the new cd,"Out Of The Grave And Into The Dark"
it just mostly electronic drums and guitar.it's instrumental.
intro:starts with electric Drums

E:-----------------------------------------------------|
B:-----------------------------------------------------|
G:-----------------------------------------------------|
D:-----------------------------------------------------|
A:--4-4---4------4-4-7-7-6-6-5-5-4-4-7-7-6-6-5-5-------|
E:--2-2---2------2-2-5-5-4-4-3-3-2-2-5-5-4-4-3-3-------|


E:-----------------------0-------0-----------------------0-------------|
B:--------------------0--------0-----------------------0---------------|
G:------------------3--------3-----------------------3-----------3-4---|
D:----------------4--------4-----------------------4-----------4-----5-|
A:--4-4-4-4-4-4------------------4-4-4-4-4-4--5------------------------|
E:--2-2-2-2-2-2------------------2-2-2-2-2-2--3------------------------|


E-----------------------0-------0-----------------------0--------------|
B--------------------0--------0-----------------------0----------------|
G------------------3--------3-----------------------3-----------3-2----|
D----------------4--------4-----------------------4-----------4-----3--|
A--4-4-4-4-4-4------------------4-4-4-4-4-4--3-------------------------|
E--2-2-2-2-2-2------------------2-2-2-2-2-2--1-------------------------|

E:-------------------------------------------------------------------|
B:-------------------------------------------------------------------|
G:-------------------------------------------------------------------|
D:-------------------------------------------------------------------|
A:--4-4-4-4-4-4-4-4-4-4-4-4-4-4-5--4-4-4-4-4-4-4-4-4-4-4-4-5-4-3-----|
E:--2-2-0-2-2-0-2-2-0-2-2-0-2-0-3--2-2-0-2-2-0-2-2-0-2-2-0-3-2-1-----|
the end.......

there  there music isn't that hard at all, it's also very easy to tab.
later,
-Mike Cortez
Related for Legacy 2 tab