Song name
# A B C D E F G H I J K L M N O P Q R S T U V W X Y Z

Bamboo - Kailan tab

Bamboo - Kailan
brought to you by:
Francis J.Q.S.
Lucena City SHC(BSN)
f_sario@yahoo.com

x-mute note
~-let ring/Vibrato
h-hammer
p-pull off
/-slide
^-bend




Interlude1-
|---------------------------------------------------------------|
|--------------------------------------------------15-----------|
|-/6-----------------------6/----------------11-12-----14~------|
|----7~--/9-5-----------------7~---/9-10-12---------------------|
|-------------7-5-3~--------------------------------------------|
|---------------------------------------------------------------|


REPEAT vERSE AND CHORUS
solo-
|--------|------------------------/10-9----------------------|
|--------|----------------8-10-12---------10-8~--7h8p7-------|
|--------|------------7-9-------------------------------9~---|
|----4h7-|--------7-9----------------------------------------|
|---7----|-7-9-10--------------------------------------------|
|--5-----|---------------------------------------------------|

|-----------------------------------------------------------|
|-7-8-/10--7~-----------------------------------------------|
|-------------7-4-6^(7)-------------------------------------|
|------------------------7-4--------------------------------|
|-----------------------------5-4----5h7p5p4-4~-------------|
|-----------------------------------------------------------|


|----------------------------------/10-9-------------------|
|--------------------------/8-7-8--------10-7--------------|
|------------------/7-6-7----------------------6-6^(7)-----|
|----------/5-4-5------------------------------------------|
|--/5-4-5--------------------------------------------------|
|----------------------------------------------------------|

|-----------------------------|
|-----8h10-8^~-8h10-8---------|
|-6h7-----------------9p7h9^~-|
|-----------------------------|
|-----------------------------|
|-----------------------------|


|-12-12-12-12-12-12-12-12-12-12-12-12-12-12-12-12-12-12-12-12-12-12-12-12-|
|-15^---15^---15^---15^---15^---15^---15^---15^---15^---15^---15^---15^---|
|-------------------------------------------------------------------------|
|-------------------------------------------------------------------------|
|-------------------------------------------------------------------------|
|-------------------------------------------------------------------------|

|-15^/----------------------------------------------------------|
|------15-14-13-12~------15~-17~~~~~----------------------------|
|---------------------------------------------------------------|
|---------------------------------------------------------------|
|---------------------------------------------------------------|
|---------------------------------------------------------------|



Tap to rate this tab
# A B C D E F G H I J K L M N O P Q R S T U V W X Y Z