Song name
# A B C D E F G H I J K L M N O P Q R S T U V W X Y Z

Bamboo - Last Days On A Cruise Ship tab

Donated by
SHC Lucena City
courtesy of:
Francis S.
Ira C.
Bamboo and friends

for comments txt:
09283150081
e-mail@
f_sario@yahoo.com


Intro-G# Gm Cm D5-Eb5-F5 4x

|-----------------------------------------------------------|
|-----------------------------------------------------------|
|---------------------------------8h10-10b-8h10-8b~/--------|
|------------------------------10---------------------------|
|------6h8-8b-6h8-6/(1)-------------------------------------|
|---(8)-----------------------------------------------------|

|-----------------------------------------------------------|
|-----------------------------------------------------------|
|-----------------------------------------------------------|
|--8/10-8---------------------------------------------------|
|---------10--8-/6------------------------------------------|
|--------------------6-8~-----------------------------------|

Verse-G# Gm Cm (D5-Eb5-F5 )

Refrain-Bb G# 8x

Chorus-Bb G# 4x

Repeat verse chorus-
Bridge-Bb G# 4x
|---------------------------------------------------------------|
|--11h13--9-11--8--9p8-6~--4h6~---3h4-3--4/3-1------------------|
|--10--------------------------------------------3-1-3/5---1/3~-|
|-(12)----------------------------------------------------------|
|---------------------------------------------------------------|
|---------------------------------------------------------------|

|-----------------------------------------------------------|
|---------1--3h4p3-1~------3h4-6-8------8h9p8-6~------------|
|-----1h3---------------------------------------------------|
|-1h3-------------------------------------------------------|
|-----------------------------------------------------------|
|-----------------------------------------------------------|

|-----------------------------------------------------------|
|-11h13--9-11--8-9---6-8---4-6---3b~-4-3~-------------------|
|----------------------------------------3-0-3~-3s----------|
|-----------------------------------------------------------|
|-----------------------------------------------------------|
|-----------------------------------------------------------|

|-----------------------------------------------------------|
|----9-11-11~--9-x-9-11/-----11-13-13~--11-x-11-14/---16b-~-|
|-10----------------------10--------------------------------|
|-----------------------------------------------------------|
|-----------------------------------------------------------|
|-----------------------------------------------------------|

|-----------------------------------------------------------|
|-16p13--16-13--16-13--16-13--11^--9------------------------|
|-----------------------------------------------------------|
|-----------------------------------------------------------|
|-----------------------------------------------------------|
|-----------------------------------------------------------|

|-16p13----13-----------------------------------------------------|
|-------16----16----16---1313---13--------------------------------|
|---------------------15------15---15-14-12---13h15-15^-----------|
|-------------------------------------------15----------15-13-15~-|
|-----------------------------------------------------------------|
|-----------------------------------------------------------------|

|-----------------------------------------------------------|
|-----------------------------------------------------------|
|-15b~---13h15-12---13-12-10~---8/7-------------------------|
|-----------------------------------8~----------------------|
|-----------------------------------------------------------|
|-----------------------------------------------------------|

then-
Bridge-Bb G# 4x
|-----------------------------------------------------------|
|-----------------------------------------------------------|
|-8/10-8~--------10/12-10~---------15/17-15~----------------|
|-----------------------------------------------------------|
|-----------------------------------------------------------|
|-----------------------------------------------------------|

Bridge/outro/chorus-Bb G# till fade...

Tap to rate this tab
 
# A B C D E F G H I J K L M N O P Q R S T U V W X Y Z