Song name
# A B C D E F G H I J K L M N O P Q R S T U V W X Y Z

Bamboo - Last Days On A Cruise Ship tab

 
 Original taber: Francis S.

 New tabber: Adrian Chino A. Montenegro.
 for comments,heto friendster ko: adrian29_123@yahoo.com

 Hindi po saken ang tab na toh.. pero may corrections at para easy to learn yung tab.
 Nilagyan ko din ng lyrics... ehehe.. im not sure about this… pasyensya na.
 Medyo may binago lng ako sa Solo…
 
  G#   Gm    Cm     D5    Eb5   F5   Bb
|-4--||-3--||-3--||----||----||----||-6--|
|-4--||-3--||-4--||----||----||----||-6--|
|-5--||-3--||-5--||-7--||-8--||-10-||-7--|
|-6--||-5--||-5--||-7--||-8--||-10-||-8--|
|-6--||-5--||-3--||-5--||-6--||-8--||-8--|
|-4--||-3--||----||----||----||----||-6--|

Intro-G# Gm Cm D5-Eb5-F5 4x

|-----------------------------------------------------------|
|-----------------------------------------------------------|
|---------------------------------8h10-10b-8h10-8b~/--------|
|------------------------------10---------------------------|
|------6h8-8b-6h8-6/(3)-------------------------------------|
|---(8)-----------------------------------------------------|

|-----------------------------------------------------------|
|-----------------------------------------------------------|
|-----------------------------------------------------------|
|--8/10-8---------------------------------------------------|
|---------10--8-/6------------------------------------------|
|--------------------6-8~-/---------------------------------|

 Verse1:G# Gm Cm D5-Eb5-F5 2x
        G# Gm Cm 2x:
 
 Maybe, Just give me a lil more time
 So I can just relax and lay down
 On some beatiful real estate
 The kind that money can't find
 She burns so bright, She burns so bright
 Knoking on my dor, No don't you worry
 I got this all under control
 If things get tight, We can all the whole thing off
 Better check your temperature, follow te beat go faster and
 faster and faster
 
 Refrain:-Bb-G# 8x

 No one break from the formation
 No I won't run I won't run,Finally my sins are forgiven
 Don't change the channels, straight to battle
 No one break from the formation
 Stand your ground stand your ground
 When you're this close to the sun
 Now's n the time to run

 Chorus-Bb G# 4x

 Don't wait for tomorrow,Don't wait for tomorrow,
 Don't wait for tomorrow,Don't wait for tomorrow,
 
 Verse2:G# Gm Cm D5-Eb5-F5 2x
        G# Gm Cm 2x:

 Now I see you're trying that Jedi Mind shit on me
 But I apologize I just ain't that kind of guy
 Let me get you a name of someone else
 He'll get back to you with a courteous reply
 But it's been too long too long
 I'll burn frist before it's long gone long gone
 Nah don't worry bout me
 
 (repeat refrain and chorus)

 Before solo:-Bb-G# 8x

  solo-
|--6-8--4-6--3-4-3----------------------------------------------|
|------------------6-4h6—-3/4-3-4-3-1---------------------------|
|-------------------------------------3-1-3-3/5-1-1/3-----------|
|---------------------------------------------------------------|
|---------------------------------------------------------------|
|---------------------------------------------------------------|

|-----------------------3-4-3----6-8--4-6—-3-4-----------------------------|
|--------3-4-3------4h6-------6----------------6-8--4-6-3/4-3h4p3----------|
|----3h5-------5—3h5----------------------------------------------3-1-3~/--|
|--3h5---------------------------------------------------------------------|
|--------------------------------------------------------------------------|
|--------------------------------------------------------------------------|

|-------------------------------------------------------------|
|----9h11-11b-9h11p9-11/13-------11h13-13b-11h13p11-13/15-16b-|
|-/10------------------------/12------------------------------|
|-------------------------------------------------------------|
|-------------------------------------------------------------|
|-------------------------------------------------------------|

|-----------------------------------------------------------|
|-16p13--16-13--16-13--16-13--------------------------------|
|-----------------------------15^--13-s---------------------|
|-----------------------------------------------------------|
|-----------------------------------------------------------|
|-----------------------------------------------------------|

|-16p13----13-------------------------------------------------------|
|-------16----16----16---1313---13----------13----------------------|
|---------------------15------15---15-14-12----15p13h15-13^---------|
|---------------------------------------------------------15-13-15~/|
|-------------------------------------------------------------------|
|-------------------------------------------------------------------|

|-----------------------------------------------------------|
|-----------------------------------------------------------|
|-15b~---13h15-12---13-12-10~---8/7-------------------------|
|-----------------------------------8/10\8~-----------------|
|-----------------------------------------------------------|
|-----------------------------------------------------------|

 then-
 Bridge-Bb G# 4x
|-----------------------------------------------------------|
|-----------------------------------------------------------|
|-8/10-8~--------10/12-10~---------15/17-15~----------------|
|-----------------------------------------------------------|
|-----------------------------------------------------------|
|-----------------------------------------------------------|

 Refrain II: (Do Refrain Chords)(Bb-G#)
 
 He wrote a letter saying for all, that's he's done wrong
 Me the perpetrator red handed middle
 finfer on the triggersold on the idea that biger was better
 Whatever it took, sell your soul better go
 Cuz I'm not here to play no part
 This boy a fighter, all star all souls
 This boy's the clear winner, ready to fire, ready to go
 
 Finish.......hope u enjoy.. eheheheh...thx francis S..
 ehehehehh...........
 
 Enjoy po.. first time ko mag tab….
 Kaso hindi akin e...
Tap to rate this tab
 
# A B C D E F G H I J K L M N O P Q R S T U V W X Y Z