Song name
# A B C D E F G H I J K L M N O P Q R S T U V W X Y Z

Bamboo - I-you tab

-----------------------------------------------------------------------------
                             I-you - Bamboo
-----------------------------------------------------------------------------
Tabbed by: Kadadas
Email: aaron_pox@yahoo.com

Tuning: Standard

This tab is set for two guitars so I'm gonna put parenthesis to give ways to play 
it on Solo Guitar.

Intro
e|-------------------------------------------|   Pluck each 8 times plucking about 2x per second
B|-------------------------------------------|   At the eighth pluck, slide your way to the
G|-------------------------------------------|   next note
D|-------------------------------------------|                     or
A|--------------------|     Metronome 176----| = pluck along with the beat
E|---3---10---5---8--------------------------|      Or just play along with the song hehe.

Or you could do this Intro
e|-----------------------------------------------------------|
B|-----------------------------------------------------------|
G|-----------------------------------------------------------|
D|-----------------------------------------------------------|
A|-5-----5-----5----12-------12-------12-----7-----7-----7---|
E|-3-3-3-3-3-3-3-3/-10-10-10-10-10-10-10-10\-5-5-5-5-5-5-5-5-|

e|-----------------|
B|-----------------|
G|-----------------|
D|-----------------|
A|-10----10----10--|
E|-8-8-8-8-8-8-8-8-|

I'm just gonna mark the lyrics with numbers to represent the fret you will pluck at that part.

Guitar II enters... (It's ok if you don't have guitar 2, it still sounds good, just go 
on with the Intro)
Gtr. II
e|-------------------------------------------------------------------------|
B|-------------------------------------------------------------------------|
G|-------------------------------------------------------------------------|
D|-------------------------------------------------------------------------|
A|-2-----2-----2---/8-------8-------8----\3-----3-----3---/7-----7-----7---|
E|---3-3---3-3---3----10-10---10-10---10----5-5---5-5---5----8-8---8-8---8-|


Verse 1:
3
Pain
        /10
Leads to freedom
    \5                        /8
It's everyone's opinion not my own

3
Fame
           /10
Crystal kingdom
   \5                         /8
It's everybody's mission not my own


Guitar I keeps doing what he does (the intro) while Guitar II shifts to playing chords, 
namely G Dm Am C. Partially strum them from D to e string works effectively.
(If you are playing the guitar alone, keep playing the intro, then strum with an 
"entering" effect (louder and louder), and lastly strum the chord whole)

Refrain 1:
       G
Not too young
Not that old
      Dm
Neither bitter
Neither cold
       Am
Just an optimist
              C
Who's turned a little cynical
     G
Under gloom
              Dm
Don't be afraid
           Am    <-------------------- If your'e using an electric
Love is stronger than us all          guitar, switch to distortion,
C                                      do the bar chord and hold
Stronger than this soul divided     Am |3 5 5 x x x| C|8 10 10 x x x|


In this part, Guitar II just does the intro (still on distortion), just make sure that 
Guitar I makes a good STRONG Bass :P
(For Solo guitar, just strum the chords G Dm Am C)

Chorus:
All these years I never really knew what love is
Till I found you... found you
All these years I never really knew what love is
                       hold
Till I found you... found you...

Repeat Intro.


Guitar I and Guitar II would just do what they did on the first verse
(Solo guitar would just do the intro and follow the chords, including the ones  with parenthesis')

This new faith where the altar is my bed
Where the church feels like a motel room
When gold turns to lead
    G hold
Hello
             (Dm hold)<-remember that () is for solo only
Do you believe
    softer sound
e|-5-----5-----5-----|
B|---5-5---5-5---5---|
G|-------------------|
D|-------------------|
A|-------------------|
E|-------------------|

          (Am)           (Am hold)
Love is stronger than us all
    louder sound
e|-5-----5-----5-----|
B|---5-5---5-5---5---|
G|-------------------|
D|-------------------|
A|-------------------|
E|-------------------|
(C)
Stronger than two souls divided
e|-3-----3-----3-----|
B|---3-3---3-3---3---|
G|-------------------|
D|-------------------|
A|-------------------|
E|-------------------|


Refrain 2:
For both Solo guitar and Pair Guitar. Just strum the chords. (G Dm Am C)
Repeat what you did on Refrain 1 (Am and C)

I-you burn'n like fire from below, sears the flesh feeds the soul's desire
                           Am                                    C
I-you stronger than before rising through the dust like a phoenix

Repeat Chorus.
Ooh hoh.

Solo: Not too sure about Guitar II but I think Guitar I is correct. Tama yung starting 
point ng Guitar II, yung timing with Guitar I lang yung mali, pero siyempre may banda 
naman kayo pag dalawang gitara gamit niyo, kaya alam niyo naman ata mag timing haha,

Gtr. I
e|-7-----7-----7---7-----7-----7---7-----7-----7---10-------10-------10----|
B|---8-8---8-8---8---7-7---7-7---7---9-9---9-9---9----10-10----10-10----10-|
G|-------------------------------------------------------------------------|
D|-------------------------------------------------------------------------|
A|-------------------------------------------------------------------------|
E|-------------------------------------------------------------------------|
                                     Gtr. II
                                     e|------------------------------------|
                                     B|-------------------------------13/15|
                                     G|-----5h7-7-7/9----------------------|
                                     D|-5h7--------------------------------|
                                     A|------------------------------------|
                                     E|------------------------------------|

Gtr. 1
e|-11-------11-------11----14-------14-------14----14-------14-------14----|
B|----11-11----11-11----11----14-14----14-14----14----14-14----14-14----14-|
G|-------------------------------------------------------------------------|
D|-------------------------------------------------------------------------|
A|-------------------------------------------------------------------------|
E|-------------------------------------------------------------------------|
                                  Gtr. II
                                  e|---------------------------------------|
                                  B|-14/16--14-----------------------------|
                                  G|-----------15--13/15-13----13/15-13----|
                                  D|------------------------16----------16-|
                                  A|---------------------------------------|
                                  E|---------------------------------------|

Gtr. I
e|-16-------16-------16----18-------18-------18----18-------18-------18----|
B|----16-16----16-16----16----18-18----18-18----18----18-18----18-18----18-|
G|-------------------------------------------------------------------------|
D|-------------------------------------------------------------------------|
A|-------------------------------------------------------------------------|
E|-------------------------------------------------------------------------|
Gtr. II
e|-------------------------------------------------------------------------|
B|-11/13---------------------12/14------------------11/13----11------------|
G|-------------------------------------------------------------------13----|
D|----------------------------------------------------------------------13-|
A|-------------------------------------------------------------------------|
E|-------------------------------------------------------------------------|

Gtr. I
e|-16-------16-------16----16-------16-------16----18-------18-------18----|
B|----16-16----16-16----16----16-16----16-16----16----18-18----18-18----18-|
G|-------------------------------------------------------------------------|
D|-------------------------------------------------------------------------|
A|-------------------------------------------------------------------------|
E|-------------------------------------------------------------------------|

                            Gtr. II
                         e|---------------------------------|
                         B|-11/13---------------------12/14-|
                         G|---------------------------------|
                         D|---------------------------------|
                         A|---------------------------------|
                         E|------------------------=--------|

Gtr. 1
e|-18-------18-------18----16-------16-------16----------------------------|
B|----18-18----18-18----18----16-16----16-16----16-------------------------|
G|-------------------------------------------------------------------------|
D|-------------------------------------------------------------------------|
A|-------------------------------------------------------------------------|
E|-------------------------------------------------------------------------|

Gtr. II
e|------------------------|
B|-11/13----11------------|
G|------------------13----|
D|---------------------13-|
A|------------------------|
E|------------------------|

Repeat Refrain 2
Repeat Chorus x2

--FIN--

Hoo!! Wala Magawa! Ito nalang, gawa ng tab haha!!! From 11am-1pm. HEHEHEHE
************************************

| /   slide up
| \   slide down
| h   hammer-on

************************************
Tap to rate this tab
# A B C D E F G H I J K L M N O P Q R S T U V W X Y Z