Song name
# A B C D E F G H I J K L M N O P Q R S T U V W X Y Z

Bamboo - Halellujah tab

Solo:
(this is how I play the solo.. not 100% exact, just 90%. haha!)
|-----------------------------------------------7---|
|-4-4-4-4h5--------4------4-4-4-4----4-7-9-9-9-9----|
|-4-4-4-4-4-6-6-6-6-6-4-6-4-4-4-4-4-6---------------|
|---------------------------------------------------|
|---------------------------------------------------|
|---------------------------------------------------|

|---------------------------------------------------|
|-7-4----4-7-8-4----4-7-9-4-------7-9---------------|
|-4-4-4-6-------4-6--------4-6-6s8---8-4------------|
|---------------------------------------------------|
|---------------------------------------------------|
|---------------------------------------------------|

And that's pretty much the whole song. Enjoy!
Tap to rate this tab
# A B C D E F G H I J K L M N O P Q R S T U V W X Y Z