Song name
# A B C D E F G H I J K L M N O P Q R S T U V W X Y Z

Bamboo - Break On The Tought tab

Help us improve GuitareTab! Take a short survey!
 pra s mga kaibigan ko.........

 ----------------------------------------------------------------|
 ----------------------------------------------------------------|
 ----------------------------------------------------------------|
 ------/9----7-9-9b-7----7-9-------------------------------------|
 ---------10----------10-----10-7-----3p2-7-5h7-10h12-10-12/17---|
 ---------------------------------3p1----------------------------|


 ----------------------------------------------------------------|
 ----------------------------------------------------------------|
 ----------------------------------------------------------------|
 ----------------------------------------------------------------|
 -12/17-12-5-12/17-12-5-12/17-5/12----/17-17-/17-17--------------|
 ----------------------------------------------------------------|


 ----------------------------------------------------------------|
 -------------------------------------------------17-17-17-17-17-|
 ----/16--12-14/16-12-9-------------16-12-14/16------------------|
 -----------------------7-5-7/9-5-7------------------------------|
 ----------------------------------------------------------------|
 ----------------------------------------------------------------|


 --------------------------5------7-------10-----------------|
 15-12h14p12---------1p3-3---3-/5---5-7-8----8-7-8p7-0-------|
 ------------14-12-9-----------------------------------2h4p2-|
 ------------------------------------------------------------|
 ------------------------------------------------------------|
 ------------------------------------------------------------|


 -------------------------------------------------------------|
 -------------------------------------------------------------|
 ---------------------------------------------------/16-12----|
 -2-0-----/5h7p5h7--9h11p9--/9---9-11-12--11-12/14---------14-|
 -----4-5-----------------------------------------------------|
 -------------------------------------------------------------|


 -------------------------------------------------------------|
 -------------------------------------------------------------|
 ----19-19-14-12/16--12h14p12--16-19-12/16--------------------|
 -14----------------------------------------------------------|
 -------------------------------------------------------------|
 -------------------------------------------------------------|

 ung pnkahuli knakapa ko pa mahirap eh...!!!!!1
Related for Break On The Tought tab