Song name
# A B C D E F G H I J K L M N O P Q R S T U V W X Y Z

Bamboo - Childrens Of The Sun tab

Help us improve GuitareTab! Take a short survey!
Bamboo-children of the sun!KHT INTRO LANG

sorry dko alam yung effect pero OD lng cgro o distortion
bahala na kau,mas maganda tunog sa electric...

e|-------------------------------------------------|
B|-------------------------------------------------|
D|-------------------------------------------------|
G|------------------------6---2---4-----4-----2h4--| x3
A|-------------4---6--4-------------------4--------|
E|---2--4---5--------------------------------------|


e|-------------------------------------------------|
B|-------------------------------------------------|
D|-------------------------------------------------|
G|------------------------6---2---4------3p2-0-2-0-|
A|-------------4---6--4----------------------------|
E|---2--4---5--------------------------------------|

    pm lahat to               ito hinde!
e|-------------           e|-----------|
B|-------------           B|-----------|
D|------------- x3 tapos  D|-----------|
G|-------------           G|--3p2-0-0--|
A|-------------           A|-----------|
E|--2-2-2---0h1           E|---------2-|


take ur best shot!!!!!


notes:
by hudge samonte pogi member of the band
"tinaboy ni edong!" lead guitarist
chek nio toh sana magustuhan nio!!!
gawa ko toh 1st tab pero my 1millionth kapa!ahehehe
cge ciao enjoy my beutiful cool tab!
dedicated to sa band ko!we rock kaya ntn yan sa battle of the bands!!!\m||m/e |>ock

WANTED NGA PALA VOCALIST SA LAHAT NG 4th year SENIORS NA GWAPO AT MAY POTENTIAL SINGER
INQUIRE KAYO SMEN KY POL SAN JOSE SECTION AGNES!THANK YOU

to franco..coprangks kapa ko toh di ka2lad nung sau copy paste!ahehehe
jokes!i love u papa..
Related for Childrens Of The Sun tab